Bangla Chords:

0 comment(s) so far...have your say!

Amaro Porano Jaha Chay : Tabs, Notes


qrcode for - Amaro Porano Jaha Chay : Tabs, Notes
Song: Amaro Porano Jaha Chay
Artist: Rabindranath Tagore
From: Rabindra Sangeet (1888)


View: {Chords} - {Strum & Analysis} - {Tabs} - {Plain Lyrics} - {Song & Videos}


Guitar Tabs:
Amaro porano jaha chay -
Tumi tai - tumi tai go.
Amaro porano jaha chay...
E------------------------------------
A------------------------------------
D------6-56-6-----------6-------6-56-
G-6-643-3-----6h8--46864-3-6-643-3---
B--4---------4---54---------4--------
e------------------------------------ x2


Tumi shukho jodi nahi pao,
Jao shukhero shondhane jao.
E--------------------------------------
A--------------------------------------
D-5------------------------------------
G--66----------------------------------
B----4-4-------------------------76-46-
e-------33-334-643-44-3466-6764-4------ x2

(and so on)


Original Scale: Db major


Learn What do these symbols mean: Reading Tabs...
http://banglachords.blogspot.com/2013/08/amaro-porano-jaha-chay-tabs-notes.html



Liked 'Amaro Porano Jaha Chay : Tabs, Notes' enough to share / save?

Amaro Porano Jaha Chay : Tabs, Notes

Comments: 0 comment(s)...have your say!

BanglaChords Tip:

Tune your guitar before you start playing.^Top^
 





# Hosted for free on Blogspot.com / "Powered by Blogger." Get yours today at www.blogger.com
# The material collected and made available through these sites is exclusively intended for private study, research & to provide study material for musicians - in good faith. (Copyrights)
# This site uses cookies to offer you a better browsing experience. Kindly read the Terms of Service & Privacy policy and continue only if you agree.
# Copyrights, wherever applicable: IndianGuitarChords.Blogspot.Com (™ ©) / Arindam Sarkar © - MMVIII - MMXVI