Bangla Chords:

0 comment(s) so far...have your say!

Mor Bhabonare Ki Howaye Matalo : Tabs, Notes


qrcode for - Mor Bhabonare Ki Howaye Matalo : Tabs, Notes
Song: Mor Bhabonare
Artist: Rabindranath Tagore
From: Rabindra Sangeet (1939)


View: {Chords} - {Strum & Analysis} - {Tabs} - {Plain Lyrics} - {Song & Videos}


Guitar Tabs:
Mor bhabonarey ki haway matalo,
Doley mono doley akarono horoshe.
E------------------------------------
A------------------------------------
D------------------------------------
G-----5-------------------5-33-5-----
B-44-4-44-46-46-------6-43-3----34---
e-----------3--3h6--34-3-------------

Hridayo-gogoney shojolo ghono nobin meghey
Roshero dhara boroshey.
E------------------------------------
A------------------------------------
D------------------------------------
G-5--7-----------------5---5-3-------
B--44-66-46--6-46--6-43--43-3--------
e----------33----33------------------

Tahare dakhi na, je dakhi na,
Sudhu monay monay khonay khonay oi shona jai.
E---------------------------------------------------
A---------------------------------------------------
D---------------------------------------------------
G--5------------------------------------------------
B-4-4-46-----88--------------------------8-89-88p6--
e-------3h6-6--86-68-8(10)(11)(10)-8665-5-----------

Bajay alokhito tari charaney. X2
Runurunu runurunu nupuro dhoni.
E----------------|--------------------
A----{twice}-----|--------------------
D----------------|-------------------
G-5------------5-|------------------5-
B--4-46----6-43--|-36-6------6-64-34--
e------34-3------|-----3-34-3---------

Gopono swapaney chailo
Aparasho anchalar naba nilima.
E------------------------------
A------------------------------
D------------------------------
G---5---5-------------5-33-5---
B-43--43-344h6---6--43-3----34-
e--------------34-3------------


Original Scale: C minor


Learn What do these symbols mean: Reading Tabs...
http://banglachords.blogspot.com/2013/07/mor-bhabonare-ki-howaye-matalo-tabs.html



Liked 'Mor Bhabonare Ki Howaye Matalo : Tabs, Notes' enough to share / save?

Mor Bhabonare Ki Howaye Matalo : Tabs, Notes

Comments: 0 comment(s)...have your say!

BanglaChords Tip:

Tune your guitar before you start playing.^Top^
 





# Hosted for free on Blogspot.com / "Powered by Blogger." Get yours today at www.blogger.com
# The material collected and made available through these sites is exclusively intended for private study, research & to provide study material for musicians - in good faith. (Copyrights)
# This site uses cookies to offer you a better browsing experience. Kindly read the Terms of Service & Privacy policy and continue only if you agree.
# Copyrights, wherever applicable: IndianGuitarChords.Blogspot.Com (™ ©) / Arindam Sarkar © - MMVIII - MMXVI