Bangla Chords:

0 comment(s) so far...have your say!

Tomay Dilam (Sohorer Ushnotomo Diney) : Tabs, Notes


qrcode for - Tomay Dilam (Sohorer Ushnotomo Diney) : Tabs, Notes
Song: Tomay Dilam
Artist: Gorer Maath (Subrata Ghosh) - also - Moheener Ghoraguli
From: Tribute to Goutamda (1990s)


View: {Chords} - {Strum & Analysis} - {Tabs} - {Plain Lyrics} - {Song & Videos}


Guitar Tabs:
Sohorer ushnotomo diney,
Pitch-gola roddure, brishtir nisshwash / Tomay dilam aaj.
E------------------------------------
A------------------------------------
D--------77----------------6-3565322-
G--75-754--5-----7----7-545----------
B-5----------5-55-5-88---------------
e------------------------------------


Aar ki ba ditey pari?
Purono michiler, purono trameder, shaari....
E------------------------------------
A------------------------------------
D------------------------------5-5h7-
G-5-555-55-57p5-444-444-444-444------
B------------------------------------
e------------------------------------


Footpath ghesha baloon gari/
/............/
Rododendron - / Tomay dilam aaj.
E------------------------------------------
A--------------------------------8---------
D------------------------------57-356-3p22-
G-5-555-55-57p5-444-44--444-444------------
B---------------------3--------------------
e------------------------------------------

(rest similar)


Original Scale: A minor


Learn What do these symbols mean: Reading Tabs...
http://banglachords.blogspot.com/2013/06/tomay-dilam-sohorer-ushnotomo-diney_5351.html



Liked 'Tomay Dilam (Sohorer Ushnotomo Diney) : Tabs, Notes' enough to share / save?

Tomay Dilam (Sohorer Ushnotomo Diney) : Tabs, Notes

Comments: 0 comment(s)...have your say!

BanglaChords Tip:

Tune your guitar before you start playing.^Top^
 





# Hosted for free on Blogspot.com / "Powered by Blogger." Get yours today at www.blogger.com
# The material collected and made available through these sites is exclusively intended for private study, research & to provide study material for musicians - in good faith. (Copyrights)
# This site uses cookies to offer you a better browsing experience. Kindly read the Terms of Service & Privacy policy and continue only if you agree.
# Copyrights, wherever applicable: IndianGuitarChords.Blogspot.Com (™ ©) / Arindam Sarkar © - MMVIII - MMXVI