Bangla Chords:

0 comment(s) so far...have your say!

Amar Mukti Aloy Aloy : Tabs, Notes


qrcode for - Amar Mukti Aloy Aloy : Tabs, Notes
Song: Amar Mukti Aloy Aloy
Artist: Rabindranath Tagore
From: Rabindra Sangeet (1926)


View: {Chords} - {Strum & Analysis} - {Tabs} - {Plain Lyrics} - {Song & Videos}


Guitar Tabs:
Ei akashe, amar mukti aloy aloy!
E------------------------------------
A------------------9-9---------------
D---------------986---9h8--9-9h(11)--
G------6h86-6h86----------6----------
B-5h665------------------------------
e------------------------------------

Amar mukti dhulay dhulay, ghashe ghashe!
E------------------------------------
A-99---------------------------------
D---6-68-9-----9---------------------
G---------6-668-6-689----------------
B------------------------------------
e------------------------------------

Deho-moner shuduur pare / Hariye pheli aponare -
E---------------------------------------
A---------------------------------------
D---------------------------------------
G-6h8p6------------------8-(10)----8-86-
B------6p4h6-6h777-767-77-7----9-77-6---
e---------------------------------------

Ganer shure amar mukti uurdhe bhashe!
E------------------------------------
A------------------------------------
D-----------------8h99-9-------------
G-------------8p66----6-6------------
B---9p77-7h9p7-----------------------
e-66---------------------------------

Amar mukti shorbojoner moner majhe;
E------------------------------------
A-99---------------------------------
D---66h8-9p88-9----------------------
G--------------6-668-6h44------------
B------------------------------------
e------------------------------------

Dukhkho-bipod-tuchchho-kora kothin kaje.
E------------------------------------
A------------------------------------
D------------------------------------
G-------66-44-444-434----------------
B-77-666-----------------------------
e------------------------------------

Original Scale: F# major


Learn What do these symbols mean: Reading Tabs...
http://banglachords.blogspot.com/2013/06/amar-mukti-aloy-aloy-tabs-notes.html



Liked 'Amar Mukti Aloy Aloy : Tabs, Notes' enough to share / save?

Amar Mukti Aloy Aloy : Tabs, Notes

Comments: 0 comment(s)...have your say!

BanglaChords Tip:

Tune your guitar before you start playing.^Top^
 





# Hosted for free on Blogspot.com / "Powered by Blogger." Get yours today at www.blogger.com
# The material collected and made available through these sites is exclusively intended for private study, research & to provide study material for musicians - in good faith. (Copyrights)
# This site uses cookies to offer you a better browsing experience. Kindly read the Terms of Service & Privacy policy and continue only if you agree.
# Copyrights, wherever applicable: IndianGuitarChords.Blogspot.Com (™ ©) / Arindam Sarkar © - MMVIII - MMXVI