Bangla Chords:

0 comment(s) so far...have your say!

Shangana Gagane Ghor Ghana Ghata : Tabs, Notes


qrcode for - Shangana Gagane Ghor Ghana Ghata : Tabs, Notes
Song: Shangana gagane ghor ghana ghata
Artist: Rabindranath Tagore
From: Rabindrasangeet (1877)


View: {Chords} - {Strum & Analysis} - {Tabs} - {Plain Lyrics} - {Song & Videos}


Guitar Tabs:
Shanganagagane ghor ghanaghata, nishithayamini re....
E------------------------------------
A------------------------------------
D--------6--6-56-------------6-------
G-3---434-43-3-----------4-3--3------
B--424-----------2444p244------------
e------------------------------------


Kunjapathe, sakhi, kayse jaayobo abala kaamini re?
E-------------------------------------
A-------------------------------------
D----------------------------------6--
G------------------------------2-3--3-
B-2-444-4----------2-224-4p244--------
e--------1-2h44-2-1-------------------

Unmade pabane jamuna tarajita, ghana ghana garajita megha.
E-------------------------------------
A-------------------------------------
D-------------------------------------
G-------------------------------------
B-2h4-4-----------------------4---4-4-
e------3-333-3334-4-44-4642-21-1-2-1--

(rest similar)


Original Scale: G# minor


Learn What do these symbols mean: Reading Tabs...
http://banglachords.blogspot.com/2013/05/shangana-gagane-ghor-ghana-ghata-tabs.html



Liked 'Shangana Gagane Ghor Ghana Ghata : Tabs, Notes' enough to share / save?

Shangana Gagane Ghor Ghana Ghata : Tabs, Notes

Comments: 0 comment(s)...have your say!

BanglaChords Tip:

Tune your guitar before you start playing.^Top^
 





# Hosted for free on Blogspot.com / "Powered by Blogger." Get yours today at www.blogger.com
# The material collected and made available through these sites is exclusively intended for private study, research & to provide study material for musicians - in good faith. (Copyrights)
# This site uses cookies to offer you a better browsing experience. Kindly read the Terms of Service & Privacy policy and continue only if you agree.
# Copyrights, wherever applicable: IndianGuitarChords.Blogspot.Com (™ ©) / Arindam Sarkar © - MMVIII - MMXVI