Bangla Chords:

0 comment(s) so far...have your say!

Nishi Raat Banka Chand Akashe : Tabs, Notes


qrcode for - Nishi Raat Banka Chand Akashe : Tabs, Notes
Song: Nishi Raat Banka Chand Akashe
Artist: Geeta Dutt
From: Prithibi Amare Chay (1957)


View: {Chords} - {Strum & Analysis} - {Tabs} - {Plain Lyrics} - {Song & Videos}


Guitar Tabs:
Nishi raat, banka chand akashe;
Chupi chupi banshi baje batashe, batashe....
E------------------------------------------------
A------------------------------------------------
D-8---------------------------------------8------
G--57-78-----578--78------------------7-75-5-575-
B--------656--------68h9-698-6-565h656-6---------
e------------------------------------------------


Bhanga ghore du diner ei khelaghor.
E------------------------------------
A------------------------------------
D------------------------------------
G------------------------------------
B-66---------------------------------
e---(10)(10)-58(11)(11)-(13)(11)(10)-

Hok bhanga, tobu elo jochona....
E------------------------------------
A------------------------------------
D------------------------------------
G------------------------------------
B----------------------8-8-----------
e-58(10)s(11)(10)-8655--5------------


Phoole phoole cheye gelo baluchor;
Shopno bashor kori rochona.
E------------------------------------
A------------------------------------
D------------------------------8-88--
G-------------5-7p57p5-------75-5----
B-686---6898-6--------9--866---------
e----66------------------------------

E jibone jototuku cheyechi,
Mon bole taro beshi peyechi, peyechi.
E-------------------------------------------
A-------------------------------------------
D-8-------------------------------------8---
G--57---7-------------------------7-7-75-5--
B----66--68(10)-6h88-686---6-88-66---6------
e-----------------------66--6---------------


Original Scale: Bb major


Learn What do these symbols mean: Reading Tabs...
http://banglachords.blogspot.com/2013/05/nishi-raat-banka-chand-akashe-tabs-notes.html



Liked 'Nishi Raat Banka Chand Akashe : Tabs, Notes' enough to share / save?

Nishi Raat Banka Chand Akashe : Tabs, Notes

Comments: 0 comment(s)...have your say!

BanglaChords Tip:

Tune your guitar before you start playing.^Top^
 





# Hosted for free on Blogspot.com / "Powered by Blogger." Get yours today at www.blogger.com
# The material collected and made available through these sites is exclusively intended for private study, research & to provide study material for musicians - in good faith. (Copyrights)
# This site uses cookies to offer you a better browsing experience. Kindly read the Terms of Service & Privacy policy and continue only if you agree.
# Copyrights, wherever applicable: IndianGuitarChords.Blogspot.Com (™ ©) / Arindam Sarkar © - MMVIII - MMXVI