Bangla Chords:

0 comment(s) so far...have your say!

Anondoloke Mongolaloke Birajo, Satyosundaro : Tabs, Notes


qrcode for - Anondoloke Mongolaloke Birajo, Satyosundaro : Tabs, Notes
Song: Anondoloke Mongolaloke
Artist: Rabindranath Tagore
From: Rabindrasangeet (1893)


View: {Chords} - {Strum & Analysis} - {Tabs} - {Plain Lyrics} - {Song & Videos}


Guitar Tabs:
Anondoloke mongolaloke birajo, satyosundaro.
E------------------------------------
A------------------------------------
D------------------------------------
G------------------7----77--67-------
B-7-77-7-5-7-8-8----57-5--75---------
e-----------5---75-------------------

Mohima tobo udbhashito mohagogonomajhe,
E------------------------------------
A------------------------------------
D------------------------------------
G-777-67---7-------------------------
B-------555-5-77-78-857--------------
e------------------5-----------------

Bishwajogoto monibhushon beshtito chorone.
E------------------------------------
A------------------------------------
D------------------------------------
G------------------------------------
B------------------------8-----------
e-555-54-555-54-5-54-57-5------------


Original Scale: D major


Learn What do these symbols mean: Reading Tabs...
http://banglachords.blogspot.com/2013/03/anondoloke-mongolaloke-birajo_9614.html



Liked 'Anondoloke Mongolaloke Birajo, Satyosundaro : Tabs, Notes' enough to share / save?

Anondoloke Mongolaloke Birajo, Satyosundaro : Tabs, Notes

Comments: 0 comment(s)...have your say!

BanglaChords Tip:

Tune your guitar before you start playing.^Top^
 





# Hosted for free on Blogspot.com / "Powered by Blogger." Get yours today at www.blogger.com
# The material collected and made available through these sites is exclusively intended for private study, research & to provide study material for musicians - in good faith. (Copyrights)
# This site uses cookies to offer you a better browsing experience. Kindly read the Terms of Service & Privacy policy and continue only if you agree.
# Copyrights, wherever applicable: IndianGuitarChords.Blogspot.Com (™ ©) / Arindam Sarkar © - MMVIII - MMXVI