Bangla Chords:

0 comment(s) so far...have your say!

Amar Bhaier Rokte Rangano Ekushey February : Tabs, Notes


qrcode for - Amar Bhaier Rokte Rangano Ekushey February : Tabs, Notes
Song: Amar Bhaier Rokte Rangano Ekushey February
Artist: Abdul Gaffar Choudhury, Abdul Latif, Altaf Mahmud
From: The Bengali Language Movement of the 50s (1950s)


View: {Chords} - {Strum & Analysis} - {Tabs} - {Plain Lyrics} - {Song & Videos}


Guitar Tabs:
Amar bhaiyer rokte rangano Ekushe February - Ami ki bhulite pari?
E----------------------------------------
A----------------------------------------
D-6-------------------------6------------
G-------------66-6----6------------8p6-6-
B--6-66-6h76-4----44-4-66----44-46-------
e----------------------------------------


Chhele hara shato mayer ashru goriye February - Ami ki bhulite pari?
E-------------------------------------
A-------------------------------------
D-------------------------6-----------
G-------------------5-----------8p6-6-
B-77-77-77-7-66-66-4-44----44-46------
e-----------4-------------------------


Amar sonar desher rokte rangano February - Ami ki bhulite pari.
E------------------------------------
A------------------------------------
D------------------------------------
G------------------------------------
B---------77-------------------------
e-44-44-66---66-64-88-88886--99------

Amar bhaiyer rokte rangano Ekushe February - Ami ki bhulite pari?
E----------------------------------------
A----------------------------------------
D-6-------------------------6------------
G-------------66-6----6------------8p6-6-
B--6-66-6h76-4----44-4-66----44-46-------
e----------------------------------------


Original Scale: C# major


Learn What do these symbols mean: Reading Tabs...
http://banglachords.blogspot.com/2013/03/amar-bhaier-rokte-rangano-ekushey_25.html



Liked 'Amar Bhaier Rokte Rangano Ekushey February : Tabs, Notes' enough to share / save?

Amar Bhaier Rokte Rangano Ekushey February : Tabs, Notes

Comments: 0 comment(s)...have your say!

BanglaChords Tip:

Tune your guitar before you start playing.^Top^
 





# Hosted for free on Blogspot.com / "Powered by Blogger." Get yours today at www.blogger.com
# The material collected and made available through these sites is exclusively intended for private study, research & to provide study material for musicians - in good faith. (Copyrights)
# This site uses cookies to offer you a better browsing experience. Kindly read the Terms of Service & Privacy policy and continue only if you agree.
# Copyrights, wherever applicable: IndianGuitarChords.Blogspot.Com (™ ©) / Arindam Sarkar © - MMVIII - MMXVI