Bangla Chords:

0 comment(s) so far...have your say!

Bistirno Dupare - Ganga Boicho Keno (Bhupen Hazarika) : Tabs, Notes


qrcode for - Bistirno Dupare - Ganga Boicho Keno (Bhupen Hazarika) : Tabs, Notes
Song: Bistirno Dupare
Artist: Bhupen Hazarika
From: (single) (1950s)


View: {Chords} - {Strum & Analysis} - {Tabs} - {Plain Lyrics} - {Song & Videos}


Guitar Tabs:
Bistirno dupare, oshonkho manusher / Hahakar shuneo, nishobde nirobe,
O Ganga tumi! Ganga boicho kano?

E-----3-5-----3-5-------------------------------------
A-33-3---3-333---3-5------------5------5------5-55p3--
D-------------------25-5-5-22-22-25-5-2-25-5-2--------
G---------------------2-------------------------------
B-----------------------------------------------------
e-----------------------------------------------------

Noitikotar skholon dekheo / Manobotar poton dekheo,
Nirlojjo olosh bhabe boicho kano?

E-----------------------------------------------
A---------------------------------3-5-5h7p5h7p5-
D--------------------------------2--------------
G---02-2----02--02-2----02---00-0---------------
B-11----1-11--11----1-11---11-------------------
e-----------------------------------------------


Shohosro boroshar unmadonaar / Montro diye lokkho jonere

E-----3-5-----3-5------------------------------------
A-33-3---3-333---3-5---------------------------------
D-------------------25-5-5-255-5-5-------------------
G---------------------2---------3--------------------
B----------------------------------------------------
e----------------------------------------------------

Shabal shongraami aar agragaami / Korey tolona kano?

E------------------------------------
A------------------------------------
D------------------------------------
G---------5--------5--------5--5-----
B-33h53h53-33h53h53-33h53h53-33------
e------------------------------------


Original Scale: C major


Learn What do these symbols mean: Reading Tabs...
http://banglachords.blogspot.com/2013/01/bistirno-dupare-ganga-boicho-keno_6387.html



Liked 'Bistirno Dupare - Ganga Boicho Keno (Bhupen Hazarika) : Tabs, Notes' enough to share / save?

Bistirno Dupare - Ganga Boicho Keno (Bhupen Hazarika) : Tabs, Notes

Comments: 0 comment(s)...have your say!

BanglaChords Tip:

Tune your guitar before you start playing.^Top^
 





# Hosted for free on Blogspot.com / "Powered by Blogger." Get yours today at www.blogger.com
# The material collected and made available through these sites is exclusively intended for private study, research & to provide study material for musicians - in good faith. (Copyrights)
# This site uses cookies to offer you a better browsing experience. Kindly read the Terms of Service & Privacy policy and continue only if you agree.
# Copyrights, wherever applicable: IndianGuitarChords.Blogspot.Com (™ ©) / Arindam Sarkar © - MMVIII - MMXVI