Bangla Chords:

0 comment(s) so far...have your say!

Ajana Kono Galpo Bole Meghla Neel : Tabs, Notes


qrcode for - Ajana Kono Galpo Bole Meghla Neel : Tabs, Notes
Song: Ajana Kono Galpo Bole
Artist: Shreya Ghoshal
From: Iti Mrinalini (2010)


View: {Chords} - {Strum & Analysis} - {Tabs} - {Plain Lyrics} - {Song & Videos}


Guitar Tabs:
Ajana kono galpo boley, meghla neel,
Achena pothey dichche paari ekla chil.
E------------------------------------
A------------------------------------
D-6---------------6------------------
G-----------5-56------------3-356----
B--66-64-777----4--44-46-777---------
e------------------------------------ x2

Na-pora kobita elo dheu hoye,
Jay hariye, khnujte giye, antomeel.
E------------------------------------
A------------------------------------
D------------------------------------
G------------------------------------
B----7-------------------------------
e-444-6664-888-88-66-44-22-264-------

Ajana kono galpo boley, meghla neel,
Achena pothey dichche paari ekla chil.
E------------------------------------
A------------------------------------
D-6---------------6------------------
G-----------5-56------------3-356----
B--66-64-777----4--44-46-777---------
e------------------------------------ 

Phisphisiye, bollo katha, jei jhinuk,
Casurina, lojja peye, dhaaklo mukh.
E------------------------------------
A------------------------------------
D------------------------------------
G------------------------------------
B------------764--------77-7---------
e-99-88-66-44---88-66-44----64------- x2

Chilti joley aayna holo, ei bikel -
Chawa-pawa ei hawatey aaj mishel.
E------------------------------------
A------------------------------------
D------------------------------------
G------------------------------------
B---------------7---------77-7-------
e-99-88-66-44-46--88-66-44----64-----

Baalir palette, payer tuli, joler ronge,
Ami aanki, jakhon-takhon, bishonno ek mon kemon.
E------------------------------------
A------------------------------------
D------------------------------------
G------------------------------------
B-6-6-6-6-----4----------------------
e--4-4-4-4-464--4467-7796-2245-754---

Baalir palette, payer tuli, joler ronge,
Akash dhowa rong-michhil.
E------------------------------------
A------------------------------------
D------------------------------------
G---------------556----6-------------
B-6-6-6-6-----4----4-46--------------
e--4-4-4-4-464-----------------------


Original Scale: C# major


Learn What do these symbols mean: Reading Tabs...
http://banglachords.blogspot.com/2012/12/ajana-kono-galpo-bole-meghla-neel-tabs.html



Liked 'Ajana Kono Galpo Bole Meghla Neel : Tabs, Notes' enough to share / save?

Ajana Kono Galpo Bole Meghla Neel : Tabs, Notes

Comments: 0 comment(s)...have your say!

BanglaChords Tip:

Tune your guitar before you start playing.^Top^
 





# Hosted for free on Blogspot.com / "Powered by Blogger." Get yours today at www.blogger.com
# The material collected and made available through these sites is exclusively intended for private study, research & to provide study material for musicians - in good faith. (Copyrights)
# This site uses cookies to offer you a better browsing experience. Kindly read the Terms of Service & Privacy policy and continue only if you agree.
# Copyrights, wherever applicable: IndianGuitarChords.Blogspot.Com (™ ©) / Arindam Sarkar © - MMVIII - MMXVI