Bangla Chords:

0 comment(s) so far...have your say!

Shudhu Tumi Ele Na (Cactus) : Tabs, Notes


qrcode for - Shudhu Tumi Ele Na (Cactus) : Tabs, Notes
Song: Shudhu Tumi Ele Na
Artist: Cactus
From: Cactus (1999)


View: {Chords} - {Strum & Analysis} - {Tabs} - {Plain Lyrics} - {Song & Videos}


Guitar Tabs:
Verse lines: {repeat once for each similar}

Kotha chhilo ekdin, choley jabo duur neel sheemanay -
E------------------------------------
A------------------------------------
D-7----------------------------------
G---------77-5545-455s7-7s99---------
B--55-55-5---------------------------
e------------------------------------

Ek chhutey paar hoye jabo sheemana.
E------------------------------------
A------------------------------------
D--------------7p6-------------------
G--------77-554----------------------
B-55-55-5----------------------------
e------------------------------------


Chorus:

Shudhu tumi ele na.
E------------------------------------
A------------------------------------
D----------8-------------------------
G---------7--------------------------
B-66-66-56---------------------------
e------------------------------------ x4

Shomoy khujechey tomay.
E------------------------------------
A------------------------------------
D-79(10)-----------------------------
G-------97-797-----------------------
B------------------------------------
e------------------------------------


Original Scale: F major


Learn What do these symbols mean: Reading Tabs...
http://banglachords.blogspot.com/2012/10/shudhu-tumi-ele-na-cactus-tabs-notes.html



Liked 'Shudhu Tumi Ele Na (Cactus) : Tabs, Notes' enough to share / save?

Shudhu Tumi Ele Na (Cactus) : Tabs, Notes

Comments: 0 comment(s)...have your say!

BanglaChords Tip:

Tune your guitar before you start playing.^Top^
 





# Hosted for free on Blogspot.com / "Powered by Blogger." Get yours today at www.blogger.com
# The material collected and made available through these sites is exclusively intended for private study, research & to provide study material for musicians - in good faith. (Copyrights)
# This site uses cookies to offer you a better browsing experience. Kindly read the Terms of Service & Privacy policy and continue only if you agree.
# Copyrights, wherever applicable: IndianGuitarChords.Blogspot.Com (™ ©) / Arindam Sarkar © - MMVIII - MMXVI