Bangla Chords:

0 comment(s) so far...have your say!

Shaghana Gahana Ratri : Tabs, Notes


qrcode for - Shaghana Gahana Ratri : Tabs, Notes
Song: Shaghana Gahana Ratri
Artist: Rabindranath Tagore
From: Rabindra Sangeet


View: {Chords} - {Strum & Analysis} - {Tabs} - {Plain Lyrics} - {Song & Videos}


Guitar Tabs:
Shaghana gahana ratri, jhorichey shrbono dhara -
E------------------------------------
A------------------------------------
D------------------------------------
G----------------3-3-----------------
B-111-111-1h31h31---11-2-20-2-0------
e------------------------------------


Ondho bibhabori, shongo-porosho-haara.
E------------------------------------
A------------------------------------
D-5----------------------------------
G--55-55-5-5-4--4--------------------
B-------------33-3-33-13568656-------
e------------------------------------


Shaghana gahana ratri, jhorichey shrbono dhara -
E------------------------------------
A------------------------------------
D------------------------------------
G----------------3-3-----------------
B-111-111-1h31h31---11-2-20-2-0------
e------------------------------------



Cheye thaki je shunney, onnomoney -
Shethay birohinir oshru horon korechay oi tara.
E----------------------------------------------------
A----------------------------------------------------
D----------------------------------------------------
G-5--------------------------------------------------
B--55-5-5s7-78-7878-787-88--7s(10)-8s6-555653-6s88p6-
e----------------------5-----------------------------


Shaghana gahana ratri, jhorichey shrbono dhara -
E------------------------------------
A------------------------------------
D------------------------------------
G----------------3-3-----------------
B-111-111-1h31h31---11-2-20-2-0------
e------------------------------------



Ashothha-pollobey brishti  jhoriya,
Mor-mor shobdey, noshitheyro onidra,
Dey je bhoriya - mor-mor shobdey.
E-------------------------------------------------
A-------------------------------------------------
D-5-----------------------------------------------
G--55-554-4------5--------------------------------
B----------3-333--55-556-366-6665-588-6-56-535-65-
e------------------------------------------------- x2


Mayalok hotey chhaya toroni,
Bhashay shopno-parabarey.
E------------------------------------
A------------------------------------
D------------------------------------
G-5----------------------------------
B--555-5-57-77878-8------------------
e------------------86-866-5-323------ x2

Nahi taar kinara.
E------------------------------------
A------------------------------------
D------------------------------------
G--------45--------------------------
B----------35------------------------
e-32-3232----1323--------------------


Shaghana gahana ratri, jhorichey shrbono dhara -
E------------------------------------
A------------------------------------
D------------------------------------
G----------------3-3-----------------
B-111-111-1h31h31---11-2-20-2-0------
e------------------------------------


Original Scale: C major


Learn What do these symbols mean: Reading Tabs...
http://banglachords.blogspot.com/2012/09/shaghana-gahana-ratri-tabs-notes.html



Liked 'Shaghana Gahana Ratri : Tabs, Notes' enough to share / save?

Shaghana Gahana Ratri : Tabs, Notes

Comments: 0 comment(s)...have your say!

BanglaChords Tip:

Tune your guitar before you start playing.^Top^
 





# Hosted for free on Blogspot.com / "Powered by Blogger." Get yours today at www.blogger.com
# The material collected and made available through these sites is exclusively intended for private study, research & to provide study material for musicians - in good faith. (Copyrights)
# This site uses cookies to offer you a better browsing experience. Kindly read the Terms of Service & Privacy policy and continue only if you agree.
# Copyrights, wherever applicable: IndianGuitarChords.Blogspot.Com (™ ©) / Arindam Sarkar © - MMVIII - MMXVI