Bangla Chords:

0 comment(s) so far...have your say!

Mayabono-biharini Horini : Tabs, Notes


qrcode for - Mayabono-biharini Horini : Tabs, Notes
Song: Mayabono-biharini Horini
Artist: Rabindranath Tagore
From: Rabindra Sangeet (1939)


View: {Chords} - {Strum & Analysis} - {Tabs} - {Plain Lyrics} - {Song & Videos}


Guitar Tabs:
Mayabono-biharini horini, gohon-swapan-shonchaarini 
E------------------------------------
A------------------------------------
D-7-----------------------7----------
G--46------676-6------6464-----------
B----5-5554-----45-55----------------
e------------------------------------

Keno tarey dhoribarey kori pon, okaron - mayabono-biharini.
E------------------------------------
A------------------------------------
D-------------------7----------------
G--------------------46----676-------
B----7-755-425-425-----5-55----------
e-444--------------------------------


Thaak thaak nijo money duureytey, / Aami shudhu baansurir shureytey -
E------------------------------------
A------------------------------------
D------------------------------------
G--6---------------------------------
B-5-5-575---------------------7p5----
e--------4-5475-5797-7554-2454------- x2


Porosho koribo or praan-mon okaron - mayabono-biharini.
E------------------------------------
A------------------------------------
D-----------------7------------------
G----------6---6---46----676---------
B-5--7755-4-5-4-5----5-55------------
e--44--------------------------------


Chomokibey faguner paboney, / Poshibey aakashbani sroboney.
E------------------------------------
A------------------------------------
D---7----7----7------------7---------
G-64-4-64-4-64--6------6-64----------
B----------------55-554-----7--------
e------------------------------------

Chomokibey faguner paboney - / Chitto aakul hobey aanukhon - okaron.
E------------------------------------
A------------------------------------
D---7----7----7-----77-647-647-------
G-64-4-64-4-64--6644-----------------
B------------------------------------
e------------------------------------


Duur hotey aami tarey shaadhibo, / Goponey biroho-dorey baandhibo.
E------------------------------------
A------------------------------------
D------------------------------------
G--6---------------------------------
B-5-55-575-----------------7---7p5---
e---------4-5475-5797-7545--454------ x2


Baandhon-biheen shey je baandhon, okaron  - mayabono-biharini.
E------------------------------------
A------------------------------------
D-----------------7------------------
G----------6---6---46----676---------
B-5--7755-4-5-4-5----5-55------------
e--44--------------------------------


Original Scale: A major


Learn What do these symbols mean: Reading Tabs...
http://banglachords.blogspot.com/2012/09/mayabono-biharini-horini-tabs-notes.html



Liked 'Mayabono-biharini Horini : Tabs, Notes' enough to share / save?

Mayabono-biharini Horini : Tabs, Notes

Comments: 0 comment(s)...have your say!

BanglaChords Tip:

Tune your guitar before you start playing.^Top^
 





# Hosted for free on Blogspot.com / "Powered by Blogger." Get yours today at www.blogger.com
# The material collected and made available through these sites is exclusively intended for private study, research & to provide study material for musicians - in good faith. (Copyrights)
# This site uses cookies to offer you a better browsing experience. Kindly read the Terms of Service & Privacy policy and continue only if you agree.
# Copyrights, wherever applicable: IndianGuitarChords.Blogspot.Com (™ ©) / Arindam Sarkar © - MMVIII - MMXVI