Bangla Chords:

0 comment(s) so far...have your say!

Amar Nishithoratero Badolodhara : Tabs, Notes


qrcode for - Amar Nishithoratero Badolodhara : Tabs, Notes
Song: Amar Nishithoratero Badolodhara
Artist: Rabindranath Tagore
From: Rabindra Sangeet (1915)


View: {Chords} - {Strum & Analysis} - {Tabs} - {Plain Lyrics} - {Song & Videos}


Guitar Tabs:
Amar nishithorater badoldhaara / Amar nishithorater badoldhaara,
E------------------------------------
A------------------------------------
D-77---------------------------------
G---4s666-6h7-7-676-4s76-------------
B------------5-----------------------
e------------------------------------ x2

Esho hey goponey, / Amar swapanlokey dishahaara.
E------------------------------------
A------------------------------------
D------------------------------------
G-666h7-77-6p7-----------------------
B---------5----55h6-6685-5h99965-----
e------------------------------------

Nishithorater badoldhaara / Amar nishithorater badoldhaara,
E------------------------------------
A------------------------------------
D-77---------------------------------
G---4s666-6h7-7-676-4s76-------------
B------------5-----------------------
e------------------------------------ x2


Ogo ondhakarer antorodhon, / Dao dhekey mor poran mon -
E------------------------------------
A------------------------------------
D------------------------------------
G-77-7-------------------------------
B-----5------------------5-5h79------
e------44h5-5475-5h9975-4------------ x2

Ami chai ne, ami chai ne - / Ami chai ne topon, chai ne taara.
E------------------------------------
A------------------------------------
D------------------------------------
G-------------------------------6h7--
B------55-------------5-5-7--3h5-----
e-55-55---44--54h55-55---4-----------

Nishithorater badoldhaara / Amar nishithorater badoldhaara,
E------------------------------------
A------------------------------------
D-77---------------------------------
G---4s666-6h7-7-676-4s76-------------
B------------5-----------------------
e------------------------------------ x2


Original Scale: D major


Learn What do these symbols mean: Reading Tabs...
http://banglachords.blogspot.com/2012/08/amar-nishithoratero-badolodhara-tabs.html



Liked 'Amar Nishithoratero Badolodhara : Tabs, Notes' enough to share / save?

Amar Nishithoratero Badolodhara : Tabs, Notes

Comments: 0 comment(s)...have your say!

BanglaChords Tip:

Tune your guitar before you start playing.^Top^
 





# Hosted for free on Blogspot.com / "Powered by Blogger." Get yours today at www.blogger.com
# The material collected and made available through these sites is exclusively intended for private study, research & to provide study material for musicians - in good faith. (Copyrights)
# This site uses cookies to offer you a better browsing experience. Kindly read the Terms of Service & Privacy policy and continue only if you agree.
# Copyrights, wherever applicable: IndianGuitarChords.Blogspot.Com (™ ©) / Arindam Sarkar © - MMVIII - MMXVI