Bangla Chords:

0 comment(s) so far...have your say!

Shikol Pora Chol (Nazrul) : Tabs, Notes


qrcode for - Shikol Pora Chol (Nazrul) : Tabs, Notes
Song: Shikol Pora Chol / Shikol Porar Gaan
Artist: Kazi Nazrul Islam
From: Nazrul Geeti (1920s)


View: {Chords} - {Strum & Analysis} - {Tabs} - {Plain Lyrics} - {Song & Videos}


Guitar Tabs:
Basic Chorus Parts:

Ei shikol-pora chol, moder ei shikol-pora chol. x2
E------------------------------------
A------------------------------------
D----33-4-446------------------------
G-3-6--6-----36643-------------------
B------------------------------------
e------------------------------------x2

Ei shikol porei shikol toder korbo re bikol! x2
E------------------------------------
A------------------------------------
D------------------------------------
G----------------43------------------
B-2-----2-222-442--------------------
e--22-22-----------------------------x2

Ei shikol-pora chol, moder ei shikol-pora chol. x2
E------------------------------------
A------------------------------------
D----33-4-446------------------------
G-3-6--6-----36643-------------------
B------------------------------------
e------------------------------------x2


Basic Verse:

Toder bondho karay asha moder bondi hotey noy, 
Orey, khoy kortey asha moder shobar baandhon-bhoy. x2
E------------------------------------
A------------------------------------
D------------------------------------
G------------------------------------
B-22-------4-24-----2---------4---2--
e---122-221----112---2222-2221-121---

Bondho karay asha moder bondi hotey noy,
Orey, khoy kortey asha moder shobar baandhon-bhoy.
E------------------------------------
A------------------------------------
D------------------------------------
G-4-4-----------------------------43-
B----444-4545-25542--2----2222-442---
e---------------------2222-----------

Ei shikol-pora chol, moder ei shikol-pora chol. x2
E------------------------------------
A------------------------------------
D----33-4-446------------------------
G-3-6--6-----36643-------------------
B------------------------------------
e------------------------------------x2


Original Scale: D major


Learn What do these symbols mean: Reading Tabs...
http://banglachords.blogspot.com/2012/03/shikol-pora-chol-nazrul-tabs-notes.html



Liked 'Shikol Pora Chol (Nazrul) : Tabs, Notes' enough to share / save?

Shikol Pora Chol (Nazrul) : Tabs, Notes

Comments: 0 comment(s)...have your say!

BanglaChords Tip:

Tune your guitar before you start playing.^Top^
 





# Hosted for free on Blogspot.com / "Powered by Blogger." Get yours today at www.blogger.com
# The material collected and made available through these sites is exclusively intended for private study, research & to provide study material for musicians - in good faith. (Copyrights)
# This site uses cookies to offer you a better browsing experience. Kindly read the Terms of Service & Privacy policy and continue only if you agree.
# Copyrights, wherever applicable: IndianGuitarChords.Blogspot.Com (™ ©) / Arindam Sarkar © - MMVIII - MMXVI