Bangla Chords:

0 comment(s) so far...have your say!

Jodi Tor Daak Shune Keu Na Ashe Tobe Ekla Chalo Re : Tabs, Notes


qrcode for - Jodi Tor Daak Shune Keu Na Ashe Tobe Ekla Chalo Re : Tabs, Notes
Song: Ekla Chalo Re
Artist: Rabindranath Tagore
From: Gitabitan (1905)


View: {Chords} - {Strum & Analysis} - {Tabs} - {Plain Lyrics} - {Song & Videos}


Guitar Tabs:
Basic Chorus:

Jodi tor dak shune keu na ashe tobe ekla cholo re! x2

E------------------------------------
A------------------------------------
D------------------------------------
G------------------------------------
B-332-35-5s(10)(10)-887-5p35775-3----
e------------------------------------x2

Ekla cholo, ekla cholo, ekla cholo, ekla cholo re!

E------------------------------------
A------------------------------------
D------------------------------------
G---------------7--------------------
B-888---8-----87-5775-3--------------
e----555-587-5-----------------------

Jodi tor dak shune keu na ashe tobe ekla cholo re!

E------------------------------------
A------------------------------------
D------------------------------------
G------------------------------------
B-332-35-5s(10)(10)-887-5p35775-3----
e------------------------------------x2


Basic Verse:

Jodi keu kotha na koy - ore ore o obhaga, keu kotha na koy,
E------------------------------------
A------------------------------------
D------------------------------------
G------------------------------------
B-888-----5558--------------8--------
e----58875----5h7s8-7h8875h7-58875---

Jodi shobai thakey mukh firaye, shobai korey bhoy. /
E----------------------------------------
A----------------------------------------
D----------------------------------------
G----------------------------------------
B--------------------------------8-------
e-57-8s(10)(10)(10)(12)-7s88h75h7-5-87-5-

Jodi shobai thakey mukh firaye, shobai korey bhoy -
E------------------------------------
A------------------------------------
D------------------------------------
G------------------------------------
B-5558-----------8-------------------
e-----57-7s8875h7-5-87-5-------------

Tobu poran khuley,
O tui mukh futey tor moner kotha ekla bolo re!
E------------------------------------
A------------------------------------
D------------------------------------
G-----------------7------------------
B-888-----8-----87-57753-------------
e----58-78-587-5---------------------


Original Scale: G major


Learn What do these symbols mean: Reading Tabs...
http://banglachords.blogspot.com/2012/03/jodi-tor-daak-shune-keu-na-ase-tobe_11.html



Liked 'Jodi Tor Daak Shune Keu Na Ashe Tobe Ekla Chalo Re : Tabs, Notes' enough to share / save?

Jodi Tor Daak Shune Keu Na Ashe Tobe Ekla Chalo Re : Tabs, Notes

Comments: 0 comment(s)...have your say!

BanglaChords Tip:

Tune your guitar before you start playing.^Top^
 





# Hosted for free on Blogspot.com / "Powered by Blogger." Get yours today at www.blogger.com
# The material collected and made available through these sites is exclusively intended for private study, research & to provide study material for musicians - in good faith. (Copyrights)
# This site uses cookies to offer you a better browsing experience. Kindly read the Terms of Service & Privacy policy and continue only if you agree.
# Copyrights, wherever applicable: IndianGuitarChords.Blogspot.Com (™ ©) / Arindam Sarkar © - MMVIII - MMXVI