Bangla Chords:

0 comment(s) so far...have your say!

Thikana Heen Ekta Bari (Chandrabindoo) : Tabs, Notes


qrcode for - Thikana Heen Ekta Bari (Chandrabindoo) : Tabs, Notes
Song: Thikana Heen Ekta Bari
Artist: Chandrabindoo
From: 033 (2010)


View: {Chords} - {Strum & Analysis} - {Tabs} - {Plain Lyrics} - {Song & Videos}


Guitar Tabs:
Thikana heen ekta bari - alo chhayar ongshidaari.
E------------------------------------
A------------------------------------
D---3----3h5553---3----3h5553--------
G-20-22h3-------20-22h3--------------
B------------------------------------
e------------------------------------ x2

Dudikey taar, dukhana poth - konta raakhi konta chhari?
E----------------------------------------
A----------------------------------------
D---------5------------------------------
G--22----4------5-554--------20--0h2-220-
B-2--2-32--3-333------------0--01--------
e----------------------------------------


Monkemoner dhuushor kiley, maanay bhalo porda diley.
E------------------------------------
A------------------------------------
D------------------------------------
G------------------------------------
B-1-13-13--1-13-133------------------
e-----1--31----1---31---------------- x2

Jong dhora dao rong baahari!
E------------------------------------
A------------------------------------
D------------------------------------
G----------3-------------------------
B-------3-3-31-----------------------
e-1-11-0-----------------------------


Original Scale: F major


Learn What do these symbols mean: Reading Tabs...
http://banglachords.blogspot.com/2012/01/thikana-heen-ekta-bari-chandrabindoo_01.html



Liked 'Thikana Heen Ekta Bari (Chandrabindoo) : Tabs, Notes' enough to share / save?

Thikana Heen Ekta Bari (Chandrabindoo) : Tabs, Notes

Comments: 0 comment(s)...have your say!

BanglaChords Tip:

Tune your guitar before you start playing.^Top^
 





# Hosted for free on Blogspot.com / "Powered by Blogger." Get yours today at www.blogger.com
# The material collected and made available through these sites is exclusively intended for private study, research & to provide study material for musicians - in good faith. (Copyrights)
# This site uses cookies to offer you a better browsing experience. Kindly read the Terms of Service & Privacy policy and continue only if you agree.
# Copyrights, wherever applicable: IndianGuitarChords.Blogspot.Com (™ ©) / Arindam Sarkar © - MMVIII - MMXVI