Bangla Chords:

0 comment(s) so far...have your say!

Chol Rastay (Autograph : 2010) : Tabs, Notes


qrcode for - Chol Rastay (Autograph : 2010) : Tabs, Notes
Song: Chol Rastay
Artist: Shreya Ghoshal, Priyam Mukherjee
From: Autograph (2010)


View: {Chords} - {Strum & Analysis} - {Tabs} - {Plain Lyrics} - {Song & Videos}


Guitar Tabs:
Basic Chorus:

Chol rastay shaji tram-line, ar ar kobitay shuye couplet.
Aha uttap koto shundar tui thermometer-e mapley.
E-------------------------------------------------------------
A-------------------------------------------------------------
D-99----------------------------------------------------------
G------------99--986------------------------------------------
B---9-79(10)9--97----79(10)(10)79(10)(10)--(10)(10)97(10)(10)-
e----------------------------------------77-------------------

Hiya tup-tap gia-nostal, mithey kuashay bheja aastin-
Ami bhule jai kake chaitam, ar tui kake bhalobasti.
E----------------------------------------
A----------------------------------------
D----------------------------------------
G----------------------------------------
B----------77------------77--77---7-5745-
e-5799-5799--55579-67--75--75--775-------

Basic Verse:

Priyo bandhur paara nijjhum - chena chaand choley jaay rickshay...
Priyo bandhur paara nijjhum - chena chaand choley jaay rickshay.
E----------------------------------------
A----------------------------------------
D---99--99--------------99--99-----------
G-98--98--888-889-89--98--98--888-889-89-
B----------------7-------------------7---
e----------------------------------------

Mukhe ja khushi boluk rattir, shudhu chokh theke chokhe dik shaay.
E------------------------------------
A------------------------------------
D--------------------9---------------
G-9----9-77-777-7779-----------------
B--7888-8-----------7----------------
e------------------------------------

Paaye ghum jaay eka footpath, orey jochhonay mora plastic...
Paaye ghum jaay eka footpath, orey jochhonay mora plastic -
E-----------------------------------------
A-----------------------------------------
D-----------------------------------------
G-----------------------------------------
B----------77------------------77---------
e-5799-5799--66679-67-5799-5799--66679-67-

Ami bhule jai kake chaitam, ar tui kake bhalobasti.
E------------------------------------
A------------------------------------
D------------------------------------
G------------------------------------
B---77--77----7-5745-----------------
e-75--75--77-5-----------------------


Original Scale: E major


Learn What do these symbols mean: Reading Tabs...
http://banglachords.blogspot.com/2011/10/chol-rastay-autograph-2010-tabs-notes.html



Liked 'Chol Rastay (Autograph : 2010) : Tabs, Notes' enough to share / save?

Chol Rastay (Autograph : 2010) : Tabs, Notes

Comments: 0 comment(s)...have your say!

BanglaChords Tip:

Tune your guitar before you start playing.^Top^
 





# Hosted for free on Blogspot.com / "Powered by Blogger." Get yours today at www.blogger.com
# The material collected and made available through these sites is exclusively intended for private study, research & to provide study material for musicians - in good faith. (Copyrights)
# This site uses cookies to offer you a better browsing experience. Kindly read the Terms of Service & Privacy policy and continue only if you agree.
# Copyrights, wherever applicable: IndianGuitarChords.Blogspot.Com (™ ©) / Arindam Sarkar © - MMVIII - MMXVI