Bangla Chords:

0 comment(s) so far...have your say!

Bioscope (Dalchhut) : Tabs, Notes


qrcode for - Bioscope (Dalchhut) : Tabs, Notes
Song: Bioscope
Artist: Dalchhut, Sanjeeb Choudhury
From: Aakaashchuri (2003)


View: {Chords} - {Strum & Analysis} - {Tabs} - {Plain Lyrics} - {Song & Videos}


Guitar Tabs:
Basic Intro / Interlude:
E-----------------------------------------
A-----------------------------------------
D-----------------------------------------
G-8------8--------------------------------
B--68-9-8-68-9-8-89--------------------98-
e------------------6(10)(10)(11)-9986-6---

E------------------------------------
A------------------------------------
D------------------------------------
G--------8------------8-88-----------
B-89--986-798--89--986-6-------------
e---86-----------86------------------


Original Scale: Eb major


Learn What do these symbols mean: Reading Tabs...
http://banglachords.blogspot.com/2011/10/bioscope-dalchhut-tabs-notes.html



Liked 'Bioscope (Dalchhut) : Tabs, Notes' enough to share / save?

Bioscope (Dalchhut) : Tabs, Notes

Comments: 0 comment(s)...have your say!

BanglaChords Tip:

Tune your guitar before you start playing.^Top^
 





# Hosted for free on Blogspot.com / "Powered by Blogger." Get yours today at www.blogger.com
# The material collected and made available through these sites is exclusively intended for private study, research & to provide study material for musicians - in good faith. (Copyrights)
# This site uses cookies to offer you a better browsing experience. Kindly read the Terms of Service & Privacy policy and continue only if you agree.
# Copyrights, wherever applicable: IndianGuitarChords.Blogspot.Com (™ ©) / Arindam Sarkar © - MMVIII - MMXVI