Bangla Chords:

0 comment(s) so far...have your say!

Shiwli Photar Gondhey Bhoriye (Moheener Ghoraguli) : Tabs, Notes


qrcode for - Shiwli Photar Gondhey Bhoriye (Moheener Ghoraguli) : Tabs, Notes
Song: Shiwli Photar Gondhey Bhoriye
Artist: Moheener Ghoraguli, Arunendu Das
From: ??(information required)


View: {Chords} - {Strum & Analysis} - {Tabs} - {Plain Lyrics} - {Song & Videos}


Guitar Tabs:
Basic Chorus:

Shiwli photar gondhey bhoriye,
Bhorer ghaashe shishir chhoriye, go,
Pyeja meghe, eshechhe shorot bujhi aaj!

  G               G               G
E-3---------------3---------------3-------------------
A-5---------------5---------------5-------------------
D-5-5-55-4-44--5--5-5-55--5-------5-55-55---5------5--
G-4--4-------22---4--4--22-554----4------222-2h4-42---
B-----------------------------------------------------
e----------------------------------------------------- x2

Basic Verse:

Doshobhuuja Durga puja -
Din beshi nei baanki aar!
Dikey dikey shei aayojon;
Dhaakey taar tulechey aawaj!
E------------------------------------
A--------------5s775-5---------------
D----------5-55----------------------
G-5--5---5---------------------------
B--44-4-4-4--------------------------
e------------------------------------ x2x2 = x4


Original Scale: G major


Learn What do these symbols mean: Reading Tabs...
http://banglachords.blogspot.com/2011/09/shiwli-photar-gondhey-bhoriye-moheener_08.html



Liked 'Shiwli Photar Gondhey Bhoriye (Moheener Ghoraguli) : Tabs, Notes' enough to share / save?

Shiwli Photar Gondhey Bhoriye (Moheener Ghoraguli) : Tabs, Notes

Comments: 0 comment(s)...have your say!

BanglaChords Tip:

Tune your guitar before you start playing.^Top^
 





# Hosted for free on Blogspot.com / "Powered by Blogger." Get yours today at www.blogger.com
# The material collected and made available through these sites is exclusively intended for private study, research & to provide study material for musicians - in good faith. (Copyrights)
# This site uses cookies to offer you a better browsing experience. Kindly read the Terms of Service & Privacy policy and continue only if you agree.
# Copyrights, wherever applicable: IndianGuitarChords.Blogspot.Com (™ ©) / Arindam Sarkar © - MMVIII - MMXVI