Bangla Chords:

0 comment(s) so far...have your say!

Jagorane Jay Bibhabori (Rabindrasangeet) : Tabs, Notes


qrcode for - Jagorane Jay Bibhabori (Rabindrasangeet) : Tabs, Notes
Song: Jagorane Jay Bibhabori
Artist: Rabindranath Tagore
From: Rabindrasangeet (1918)


View: {Chords} - {Strum & Analysis} - {Tabs} - {Plain Lyrics} - {Song & Videos}


Guitar Tabs:
Jaagorone jaay bibhabori -
Aankhi hotey ghum nilo hori - ke nilo hori?
E-------------------------------------------------
A-------------------------------------------------
D-6s7---------------------------------------------
G----67-------------------------------------------
B------5------75-7s887875-5h78-77s5-5p3-5s78-77p5-
e-------44h554------------------------------------

Mori mori! Jaagorone jaay bibhabori!
E------------------------------------
A------------------------------------
D-6s7-------6s7----------------------
G----66s7------67--------------------
B----------------5------75-----------
e-----------------44s554-------------


Jaro lagi phiri eka eka - aankhi pipashito, nahi dekha,
Taari baanshi, ogo, taari baanshi -
E-----------------------------------------
A-----------------------------------------
D-----------------------------------------
G-----------------------------------------
B-5-----------5-------757--------75-57875-
e--444-44-4545-55575-4---4-2s3323---------

Taari baanshi baajey hiya bhori! Mori mori!
Jaagorone jaay bibhabori!
E--------------------------------------
A--------------------------------------
D---------7-------------6h7------------
G-------76-667-6-----------67----------
B---------------55--7--------5------75-
e-2h3323----------54----------44h554---


Baani nahi, tobu kaane kaane.
Ki je shuni - Ki je shuni taha keba jaaney.
E-3s5-555------------------------7----
A--------45-2454-4s7767-7----7-54-454-
D------------------------6644---------
G-------------------------------------
B-------------------------------------
e-------------------------------------

Ei hiya bhora bedonatey, baari cholocholo aankhi paatey -
E------------------------------------
A-----------------7----------7-------
D-6-66-66-6s79-67--77777-7-64-46-----
G-----------------------4------------
B------------------------------------
e------------------------------------ x2

Chhaya doley, tari chhaya doley -
Chhaya doley dibanishi dhori! Mori mori!
E----------------------------5----------------
A--------------------------54-445-4h577-------
D-4s55-45-42-2s4542-4h55-45------------6h7-20-
G---------------------------------------------
B---------------------------------------------
e---------------------------------------------

Jaagorone jaay bibhabori -
Aankhi hotey ghum nilo hori - ke nilo hori?
E-------------------------------------------------
A-------------------------------------------------
D-6s7---------------------------------------------
G----67-------------------------------------------
B------5------75-7s887875-5h78-77s5-5p3-5s78-77p5-
e-------44h554------------------------------------

Mori mori! Jaagorone jaay bibhabori!
E------------------------------------
A------------------------------------
D-6s7-------6s7----------------------
G----66s7------67--------------------
B----------------5------75-----------
e-----------------44s554-------------


Original Scale: A major


Learn What do these symbols mean: Reading Tabs...
http://banglachords.blogspot.com/2011/09/jagorane-jay-bibhabori-rabindrasangeet_20.html



Liked 'Jagorane Jay Bibhabori (Rabindrasangeet) : Tabs, Notes' enough to share / save?

Jagorane Jay Bibhabori (Rabindrasangeet) : Tabs, Notes

Comments: 0 comment(s)...have your say!

BanglaChords Tip:

Tune your guitar before you start playing.^Top^
 





# Hosted for free on Blogspot.com / "Powered by Blogger." Get yours today at www.blogger.com
# The material collected and made available through these sites is exclusively intended for private study, research & to provide study material for musicians - in good faith. (Copyrights)
# This site uses cookies to offer you a better browsing experience. Kindly read the Terms of Service & Privacy policy and continue only if you agree.
# Copyrights, wherever applicable: IndianGuitarChords.Blogspot.Com (™ ©) / Arindam Sarkar © - MMVIII - MMXVI