Bangla Chords:

0 comment(s) so far...have your say!

Dure Kothao (Tausif : Onneshon) : Tabs, Notes


qrcode for - Dure Kothao (Tausif : Onneshon) : Tabs, Notes
Song: Dure Kothao Achi Boshey
Artist: Tausif
From: Onneshon


View: {Chords} - {Strum & Analysis} - {Tabs} - {Plain Lyrics} - {Song & Videos}


Guitar Tabs:
Basic Theme:
E------------------------------------
A------------------------------------
D------------------------------------
G-------------6----------------------
B-------7-5-74----------977h9--------
e--6h764---4---77(11)96--------------


Dure kothao achi boshe, haat duto dao bariye...
E------------------------------------------------
A------------------------------------------------
D------------------------------------------------
G------------------------------------------------
B-9--9---------797-------99-9---------7977-------
e--67-(11)9996----9766p4---6-(11)99-96----9-7764-


Original Scale: D major


Learn What do these symbols mean: Reading Tabs...
http://banglachords.blogspot.com/2011/08/dure-kothao-tausif-onneshon-tabs-notes.html



Liked 'Dure Kothao (Tausif : Onneshon) : Tabs, Notes' enough to share / save?

Dure Kothao (Tausif : Onneshon) : Tabs, Notes

Comments: 0 comment(s)...have your say!

BanglaChords Tip:

Tune your guitar before you start playing.^Top^
 





# Hosted for free on Blogspot.com / "Powered by Blogger." Get yours today at www.blogger.com
# The material collected and made available through these sites is exclusively intended for private study, research & to provide study material for musicians - in good faith. (Copyrights)
# This site uses cookies to offer you a better browsing experience. Kindly read the Terms of Service & Privacy policy and continue only if you agree.
# Copyrights, wherever applicable: IndianGuitarChords.Blogspot.Com (™ ©) / Arindam Sarkar © - MMVIII - MMXVI