Bangla Chords:

0 comment(s) so far...have your say!

Keteche Ekela Birohero Bela (Rabindrasangeet) : Tabs, Notes


qrcode for - Keteche Ekela Birohero Bela (Rabindrasangeet) : Tabs, Notes
Song: Keteche Ekela Birohero Bela
Artist: Rabindranath Tagore
From: Rabindrasangeet


View: {Chords} - {Strum & Analysis} - {Tabs} - {Plain Lyrics} - {Song & Videos}


Guitar Tabs:
Basic Interlude:

E------------------------------------
A------------------------------------
D------------------------------------
G-8--8--8-----8-----865--------------
B--89-89-------89898-----------------
e--------8-6------------------------- x2

Basic Chorus:

Ketechey ekela birohero bela, aakahao-kushuumo-choyeney...
E------------------------------------
A-8--8-------------------------------
D-88-888-8-----8-8-------------------
G---------568-6-5-866-65-6s8s8-------
B------------6-----------------------
e------------------------------------

Shob poth eshey miley gelo sheshey, tomaro dukhani noyoney - noyoney, noyoney.
E------------------------------------
A------------------------------------
D-------------6-8----------8-----8-6-
G-6------6--65---666-88-68--56-65-5--
B--444-44-44-----------6------6------
e------------------------------------

Ketechey ekela birohero bela, aakahao-kushuumo-choyeney...
E------------------------------------
A-8--8-------------------------------
D-88-888-8-----8-8-------------------
G---------568-6-5-866-65-6s8s8-------
B------------6-----------------------
e------------------------------------


Original Scale: C# major


Learn What do these symbols mean: Reading Tabs...
http://banglachords.blogspot.com/2011/07/keteche-ekela-birohero-bela_20.html



Liked 'Keteche Ekela Birohero Bela (Rabindrasangeet) : Tabs, Notes' enough to share / save?

Keteche Ekela Birohero Bela (Rabindrasangeet) : Tabs, Notes

Comments: 0 comment(s)...have your say!

BanglaChords Tip:

Tune your guitar before you start playing.^Top^
 





# Hosted for free on Blogspot.com / "Powered by Blogger." Get yours today at www.blogger.com
# The material collected and made available through these sites is exclusively intended for private study, research & to provide study material for musicians - in good faith. (Copyrights)
# This site uses cookies to offer you a better browsing experience. Kindly read the Terms of Service & Privacy policy and continue only if you agree.
# Copyrights, wherever applicable: IndianGuitarChords.Blogspot.Com (™ ©) / Arindam Sarkar © - MMVIII - MMXVI