Bangla Chords:

0 comment(s) so far...have your say!

Smriti (Calcutta Blues : Iman Sen) : Tabs


qrcode for - Smriti (Calcutta Blues : Iman Sen) : Tabs
Song: Smriti
Artist: Iman Sen
From: Calcutta Blues (2009)


View:
{ Chords } - { Strum } - { Tabs } - { Lyrics } - { PDF } - { Videos }



Guitar Tabs:
Basic Chords:
Colleger din gulo chokher shamney...
E--------------------------------------------------
A--------------------------------------------------
D-------5----------------------5-----------5-------
G-555455---55-4h55545---555455----55-4h5545-----55-
B--------33-----------33------5-33----------3333---
e--------------------------------------------------

Smriti! Smriti! Smriti roye jaay!
E------------------------------------
A------------------------------------
D------------------------------------
G--5-5-5545--5-5-5545--5-5-5545---5--
B-3-3-3-----3-3-3-----3-3-3------3---
e------------------------------------


What do these symbols mean? Reading Tabs...
http://banglachords.blogspot.com/2011/05/smriti-calcutta-blues-iman-sen-tabs.html



Liked 'Smriti (Calcutta Blues : Iman Sen) : Tabs' enough to share / save?

Smriti (Calcutta Blues : Iman Sen) : Tabs

Comments: 0 comment(s)...have your say!

BanglaChords Tip:

Tune your guitar before you start playing.^Top^
 





# Hosted for free on Blogspot.com / "Powered by Blogger." Get yours today at www.blogger.com
# The material collected and made available through these sites is exclusively intended for private study, research & to provide study material for musicians - in good faith. (Copyrights)
# This site uses cookies to offer you a better browsing experience. Kindly read the Terms of Service & Privacy policy and continue only if you agree.
# Copyrights, wherever applicable: IndianGuitarChords.Blogspot.Com (™ ©) / Arindam Sarkar © - MMVIII - MMXVI