Bangla Chords:

0 comment(s) so far...have your say!

Jokhon Porbe Na Mor (Rabindrasangeet) : Tabs


Song: Jokhon Porbe Na Mor
Artist: Various, Rabindranath Tagore
From: Gitobitan


View:
{ Chords } - { Strum } - { Tabs } - { Lyrics } - { PDF } - { Videos }



Guitar Tabs:
Basic Chorus:
Jokhon porbe na mor paayer chinho ei batey...
E--------------------------------------------
A---5--------------------5-------------------
D-55-555-5-----------5-55-555-5-----------5--
G---------22-4p54-242----------22-4h54-242---
B--------------------------------------------
e--------------------------------------------

Ami baibo na - ami baibo na mor kheya-tori ei ghaatey, go...
E-----------------------------------------------------
A----------------------------------5------------------
D-55------5----------------------55-555-5-----------5-
G---222-24-244-44-54-22-4h54-2h42--------2-4p54-2h42--
B-----------------------------------------------------
e-----------------------------------------------------


Basic Verse:
Chukiye debo becha-kena, mitiye debo go...
E---------------------------------------------------------
A---------------------------------------------------------
D-------------------------------------------------------5-
G------------------------------------------------545-242--
B----------5h7p5-33-575-3-33-----3------3-----353---------
e-3333p2-22--------2--------202p0-0202p0-202p0------------

Tokhon amay naiba money raakhley...
E---------------------------------------------------
A---------------------------------------------------
D-55-55-5-----5-------------------------5-----5-----
G--------2-424-22h4-------------------42-2-424-22h4-
B-------------------3----------------3--------------
e--------------------03-33p2-22p0-020---------------

Jokhon porbe na mor paayer chinho ei batey...
E----------------------
A---5------------------
D-55-555-5-----------5-
G---------22-4p54-242--
B----------------------
e----------------------


What do these symbols mean? Reading Tabs...



Liked 'Jokhon Porbe Na Mor (Rabindrasangeet) : Tabs' enough to share / save?

Jokhon Porbe Na Mor (Rabindrasangeet) : Tabs

Comments: 0 comment(s)...have your say!

BanglaChords Tip:

Tune your guitar before you start playing.^Top^
 





# Hosted for free on Blogspot.com / "Powered by Blogger." Get yours today at www.blogger.com
# The material collected and made available through these sites is exclusively intended for private study, research & to provide study material for musicians - in good faith. (Copyrights, TOS & Privacy policy)
# Copyrights, wherever applicable: IndianGuitarChords.Blogspot.Com (™ ©) / Arindam Sarkar © - MMVIII - MMXIV