Bangla Chords:

0 comment(s) so far...have your say!

Firey Cholo (Fossils 3 : Fossils) : Tabs


qrcode for - Firey Cholo (Fossils 3 : Fossils) : Tabs
Song: Firey Cholo
Artist: Fossils, Rupam Islam
From: Fossils 3 (2009)


View:
{ Chords } - { Strum } - { Tabs } - { Lyrics } - { PDF } - { Videos }



Guitar Tabs:
Basic Verse 1: {repeat 1+1}
Ami bhijechhi shohorer sandhay, psychedelic aloy;
E------------------------------------
A------------------------------------
D-9----------------------------------
G-------997--------------------------
B--5h777---5h75-7h8888h(10)-8-7p5h7--
e------------------------------------

Ami bhijechhi shohorer sandhay, psychedelic aloy;
E------------------------------------
A------------------------------------
D-9----------------------------------
G-----997----------------------------
B--777---5h75-7h8888h(10)-8-7p5h7----
e------------------------------------

Basic Verse 2 & 3:{repeat 1+1}
Tumi boley chiley, bhalobasha shob cheye boro hotey paarey;
E------------------------------------
A------------------------------------
D------------------7-77s9------------
G-4------42-22h4--6------------------
B--233-52-------35-------------------
e------------------------------------

Karo nish-taranga jeebon shrote, kaalbaishakhi hotey parey!
E------------------------------------
A------------------------------------
D-9-----9799s(11)-9-----7-7s9--------
G--67796-----------67796-------------
B------------------------------------
e------------------------------------

Basic Chorus:
Firey cholo, shob cheenery cholo - jekhaney mon jetey chay!
E-------------------------------------------------
A-------------------------------------------------
D-------4-----------------------4-----5-----------
G---22h4----22h4--4-4-------22h4---2h4---42-------
B-32------32----23---23s5-32-----32----23--2-33s5-
e------------------------------------------------- x2

Oo oho! Ashomoy jokhon amakey ghirey ankey abhishaaper boloy!
E------------------------------------
A------------------------------------
D------------------------------------
G------------------------------------
B-55h7-789-57------------------------
e------------333-33335-5577----------


What do these symbols mean? Reading Tabs...
http://banglachords.blogspot.com/2011/05/firey-cholo-fossils-3-fossils-tabs.html



Liked 'Firey Cholo (Fossils 3 : Fossils) : Tabs' enough to share / save?

Firey Cholo (Fossils 3 : Fossils) : Tabs

Comments: 0 comment(s)...have your say!

BanglaChords Tip:

Tune your guitar before you start playing.^Top^
 





# Hosted for free on Blogspot.com / "Powered by Blogger." Get yours today at www.blogger.com
# The material collected and made available through these sites is exclusively intended for private study, research & to provide study material for musicians - in good faith. (Copyrights)
# This site uses cookies to offer you a better browsing experience. Kindly read the Terms of Service & Privacy policy and continue only if you agree.
# Copyrights, wherever applicable: IndianGuitarChords.Blogspot.Com (™ ©) / Arindam Sarkar © - MMVIII - MMXVI