Bangla Chords:

0 comment(s) so far...have your say!

Ek Ekke Ek (Sanat Sinha) : Tabs


qrcode for - Ek Ekke Ek (Sanat Sinha) : Tabs
Song: Ek Ekke Ek
Artist: Sanat Sinha
From: Children's rhymes


View:
{ Chords } - { Strum } - { Tabs } - { Lyrics } - { PDF } - { Videos }



Guitar Tabs:
Basic Chorus:
Ek ekke ek, du ekke dui...
E-----------------------------------------------
A-5---5-----------------------------------------
D---------55---------------5-55---------------5-
G--333-222--24-2245-445-543----24-2245-445-542--
B----------------------3------------------3-----
e-----------------------------------------------

Mon boshey ki aar?...
E---------------------------------------------------
A-5--------55---------5-5-----335-55----5-5---------
D-------542--24-2245-4-2--542----2--24-4-2----------
G--3333-------------------------------------22-22-2-
B---------------------------------------------------
e---------------------------------------------------


Basic Interlude:
E--------------------------------------
A--------------------------------------
D--------------------------------------
G--------------------------------------
B---------(10)(10)88----------(10)(10)-
e-(10)(10)----------88(10)(10)---------x2


Basic Verse:
Du ekke dui, dui duguney chaar...
E--------------------------------------------
A--------------------------------------------
D--------------------------------------------
G-------------------------55---------------5-
B-----8--87-----8--87-875---57-5578-778-875--
e-5555-55--55555-55--------------------5-----

Anmona oi chhelera shob, thaak na eebar pora...
E------------------------------------
A------------------------------------
D------------------------------------
G-55---------------5-----------------
B---57-5578-778-875------------------
e------------------------------------

Mon boshey na aar...
E---------------------------------------------------
A-5--------55---------5-5-----335-55----5-5---------
D-------542--24-2245-4-2--542----2--24-4-2----------
G--3333-------------------------------------22-22-2-
B---------------------------------------------------
e---------------------------------------------------


What do these symbols mean? Reading Tabs...
http://banglachords.blogspot.com/2011/05/ek-ekke-ek-sanat-sinha-tabs.html



Liked 'Ek Ekke Ek (Sanat Sinha) : Tabs' enough to share / save?

Ek Ekke Ek (Sanat Sinha) : Tabs

Comments: 0 comment(s)...have your say!

BanglaChords Tip:

Tune your guitar before you start playing.^Top^
 





# Hosted for free on Blogspot.com / "Powered by Blogger." Get yours today at www.blogger.com
# The material collected and made available through these sites is exclusively intended for private study, research & to provide study material for musicians - in good faith. (Copyrights)
# This site uses cookies to offer you a better browsing experience. Kindly read the Terms of Service & Privacy policy and continue only if you agree.
# Copyrights, wherever applicable: IndianGuitarChords.Blogspot.Com (™ ©) / Arindam Sarkar © - MMVIII - MMXVI