Bangla Chords:

0 comment(s) so far...have your say!

Diner Sheshe Ghumer Deshe (Rabindrasangeet) : Tabs


qrcode for - Diner Sheshe Ghumer Deshe (Rabindrasangeet) : Tabs
Song: Diner Sheshe Ghumer Deshe
Artist: Hemanta Kumar Mukhopadhyay, Rabindranath Tagore, Various
From: Anindita (1972) / Gitobitan


View:
{ Chords } - { Strum } - { Tabs } - { Lyrics } - { PDF } - { Videos }



Guitar Tabs:
Basic Verse:
Diner sheshe ghumer deshe ghomta pora oi chhaya...
E---------------------------------------
A---------------------------------------
D---------------------------------------
G-5----5-----5--------------------------
B--666-6-666-6-666-6-66p4-6-------------
e-------------------3------888-6644-3h4-

O paaretey shonar kuuley, aandhar muley kon maaya...
E---------------------------------------------------
A---------------------------------------------------
D---------------------------------------------------
G--------------------------------------------5-5----
B-------------------------6-66---66666865--56---666-
e-36-6-666-5656-8644-343h4----343-------------4-----


What do these symbols mean? Reading Tabs...
http://banglachords.blogspot.com/2011/05/diner-sheshe-ghumer-deshe.html



Liked 'Diner Sheshe Ghumer Deshe (Rabindrasangeet) : Tabs' enough to share / save?

Diner Sheshe Ghumer Deshe (Rabindrasangeet) : Tabs

Comments: 0 comment(s)...have your say!

BanglaChords Tip:

Tune your guitar before you start playing.^Top^
 





# Hosted for free on Blogspot.com / "Powered by Blogger." Get yours today at www.blogger.com
# The material collected and made available through these sites is exclusively intended for private study, research & to provide study material for musicians - in good faith. (Copyrights)
# This site uses cookies to offer you a better browsing experience. Kindly read the Terms of Service & Privacy policy and continue only if you agree.
# Copyrights, wherever applicable: IndianGuitarChords.Blogspot.Com (™ ©) / Arindam Sarkar © - MMVIII - MMXVI