Bangla Chords:

0 comment(s) so far...have your say!

Dhana Dhanya Pushpa Bhara (DL Roy) : Tabs


qrcode for - Dhana Dhanya Pushpa Bhara (DL Roy) : Tabs
Song: Dhana Dhanya Pushpa Bhara
Artist: Dwijendralal Ray, M. S. Subbulakshmi, Dilipkumar Roy, et alia
From: Dwijendrageeti (1900s)


View:
{ Chords } - { Strum } - { Tabs } - { Lyrics } - { PDF } - { Videos }



Guitar Tabs:
Basic Verse:

Dhana dhanya pushpa bhara, aamader ei bashundhara.
E-5s88---------------------------------
A-----7h88-7h8888-78s(10)------87------
D-----------------------55-3s55--------
G--------------------------------------
B--------------------------------------
e--------------------------------------

Taahar maajhey aachey desh ek, shokol dhesher shera -
E------------------------------------
A--------------8-7h88----------------
D-33-5s77----87------75h7s8-7h87-----
G--------3s55------------------------
B------------------------------------
e------------------------------------

O shey je shopno diye toiri, shey je smriti diye ghera!
E---------------------------5s8------
A-------------------------87---78----
D-5h778s(10)(10)vs887--575-------523-
G------------------------------------
B------------------------------------
e------------------------------------

Emon deshti kothao khunjey pabey nako tumi -
E------------------------------------
A------------------------------------
D--------------75-55h7s8-78v---------
G-3s55-55----32----------------------
B--------1h31------------------------
e------------------------------------

Shokol desher raani shey je, aamar jonmobhumi!
E-------------5s8--------------------
A-----------87---7-8-----------------
D----87-5h75-------------------------
G-5h7---------------5h777------------
B------------------------------------
e------------------------------------

Shey je aamar jonmobhumi! Shey je aamar jonmobhumi!
E--------------8---------------------
A---------55-57-7-8------------------
D---87-588---------55-5s78-----------
G-75---------------------------------
B------------------------------------
e------------------------------------


What do these symbols mean? Reading Tabs...
http://banglachords.blogspot.com/2011/05/dhana-dhanya-pushpa-bhara-dl-roy-tabs.html



Liked 'Dhana Dhanya Pushpa Bhara (DL Roy) : Tabs' enough to share / save?

Dhana Dhanya Pushpa Bhara (DL Roy) : Tabs

Comments: 0 comment(s)...have your say!

BanglaChords Tip:

Tune your guitar before you start playing.^Top^
 





# Hosted for free on Blogspot.com / "Powered by Blogger." Get yours today at www.blogger.com
# The material collected and made available through these sites is exclusively intended for private study, research & to provide study material for musicians - in good faith. (Copyrights)
# This site uses cookies to offer you a better browsing experience. Kindly read the Terms of Service & Privacy policy and continue only if you agree.
# Copyrights, wherever applicable: IndianGuitarChords.Blogspot.Com (™ ©) / Arindam Sarkar © - MMVIII - MMXVI