Bangla Chords:

0 comment(s) so far...have your say!

Bhalobeshe Sakhi Nibhrite Jotone : Tabs


qrcode for - Bhalobeshe Sakhi Nibhrite Jotone : Tabs
Song: Bhalobeshe Sakhi Nibhrite Jotone
Artist: Rabindranath Tagore, Various artists
From: Gitobitan


View:
{ Chords } - { Strum } - { Tabs } - { Lyrics } - { PDF } - { Videos }



Guitar Tabs:
Basic lines:

Bhalobeshe, sakhi, nibhrite jotone / Aamar namti likho - tomar monero mondirey.
E----------------------------------------------
A----------------------------------------------
D--------------------------------------------5-
G-5--------------------------557---5h6s8-65-3--
B--53555-3-6-565-33-36-53h6p3---355------------
e---------3------------------------------------

Amamro porane je gaan bajichey / Tahar talti shikho - tomar chorono-monjirey.
E------------------------------------
A------------------------------------
D------------------------------------
G------------------------------------
B-5------5----8-88-89-8-98-998----65-
e--33-333-3-57---------6------643----

Dhoriya rakhiyo shohagey adorey / Amar mukhoro pakhi - tomar prashado-prangoney.
E--------------------------------------
A--------------------------------------
D--------------------------------------
G--------------------------------------
B-8-------------------8-8898-98-889-98-
e--58-888-(10)88-756-5------6------6---

Mone kore sakhi, bandhiya rakhiyo / Amar haater rakhi - tomar konoko-konkoney.
E-----------------------------------------
A-----------------------------------------
D-----------------------------------------
G-----------------------------------------
B-8-------------------8-8898-98-889-98-65-
e--58-888-(10)88-756-5------6------6-----


What do these symbols mean? Reading Tabs...
http://banglachords.blogspot.com/2011/05/bhalobeshe-sakhi-nibhrite-jotone-tabs.html



Liked 'Bhalobeshe Sakhi Nibhrite Jotone : Tabs' enough to share / save?

Bhalobeshe Sakhi Nibhrite Jotone : Tabs

Comments: 0 comment(s)...have your say!

BanglaChords Tip:

Tune your guitar before you start playing.^Top^
 





# Hosted for free on Blogspot.com / "Powered by Blogger." Get yours today at www.blogger.com
# The material collected and made available through these sites is exclusively intended for private study, research & to provide study material for musicians - in good faith. (Copyrights)
# This site uses cookies to offer you a better browsing experience. Kindly read the Terms of Service & Privacy policy and continue only if you agree.
# Copyrights, wherever applicable: IndianGuitarChords.Blogspot.Com (™ ©) / Arindam Sarkar © - MMVIII - MMXVI