Bangla Chords:

0 comment(s) so far...have your say!

Akash Keno Daake (Kishore Kumar) : Tabs


qrcode for - Akash Keno Daake (Kishore Kumar) : Tabs
Song: Akash Keno Daake
Artist: Kishore Kumar, Gouri Prasanna Majumdar, R D Burman
From: Bangla Adhunik


View:
{ Chords } - { Strum } - { Tabs } - { Lyrics } - { PDF } - { Videos }



Guitar Tabs:
Whistle:
E-------------------------------------------------------------
A-5----------5h75v-5------------------------------------------
D--4h5v-5s75--------4h5v-577s9v-95s9------------99p7----5h75--
G-----------------------------------7v-7s97-5s75----5s77------
B-------------------------------------------------------------
e-------------------------------------------------------------

Basic Chorus:
Aakash keno daake, mon chhuti chay / Mayurponkhi megh oi jaay, bheeshe jaay.
E-------------------------------------------------------------
A-5----------5h75v-5------------------------------------------
D--4h5v-5s75--------4h5v-577s9v-95s9------------99p7----5h75--
G-----------------------------------7v-7s97-5s75----5s77------
B-------------------------------------------------------------
e-------------------------------------------------------------

Basic Verse:
Duur theke duur, aro bohu duurey...
E------------------------------------
A------------------------------------
D--------5--------5-----5------------
G----5-------5------5-----5----------
B-3h5-353-3h5-353--3-353-3-353-------
e------------------------------------

Bhanaga e mon, niye ami...
E------------------------------------
A------------------------------------
D-------------------------5----------
G---54s2-54p2-222---54-4-------------
B-53----3--------223----33-----------
e------------------------------------


What do these symbols mean? Reading Tabs...
http://banglachords.blogspot.com/2011/05/akash-keno-daake-kishore-kumar-tabs.html



Liked 'Akash Keno Daake (Kishore Kumar) : Tabs' enough to share / save?

Akash Keno Daake (Kishore Kumar) : Tabs

Comments: 0 comment(s)...have your say!

BanglaChords Tip:

Tune your guitar before you start playing.^Top^
 





# Hosted for free on Blogspot.com / "Powered by Blogger." Get yours today at www.blogger.com
# The material collected and made available through these sites is exclusively intended for private study, research & to provide study material for musicians - in good faith. (Copyrights)
# This site uses cookies to offer you a better browsing experience. Kindly read the Terms of Service & Privacy policy and continue only if you agree.
# Copyrights, wherever applicable: IndianGuitarChords.Blogspot.Com (™ ©) / Arindam Sarkar © - MMVIII - MMXVI