Bangla Chords:

0 comment(s) so far...have your say!

Aro Ekbar (Etota Poth Periye) Fossils : Tabs


qrcode for - Aro Ekbar (Etota Poth Periye) Fossils : Tabs
Song: Aro Ekbar
Artist: Fossils
From: Fossils (2002)


View:
{ Chords } - { Strum } - { Tabs } - { Lyrics } - { PDF } - { Videos }



Guitar Tabs:
Intro Lick: (uses mild distortion and echo/reverb)
E--------------------------------------------
A--------------------------------------------
D--------------------------------------------
G-5-5----------------------------------------
B--6---------4s6---------6p4h6--(13)----(13)-
e----3h4-4s3----8s6-4p3s4-----------(11)-----


Intro Verse:
Etota poth periye, eshechi tobu dujoney...
(plain vocals)


Interlude Lick 1:
E------------------------------------------------------
A------------------------------------------------------
D------------------------------------------------------
G----------55----6v------------------------------------
B-668s9866v--4h6v--4648s9866v--------------66p4-44v-6v-
e----------------------------44h6-66p4-44s3------------


Basic Verse:
Etota poth periye, eshechi tobu dujoney...
E------------------------------------------------
A------------------------------------------------
D------------------------------------------------
G------------------------------------------------
B-66--6h866-66---------66--6h866-664h6-664h6---6-
e---34--------34-646s8---34-----------------343--

Swapnera tobu khunjey jay, jeeboner shesh sheemanay...
E------------------------------------------------
A------------------------------------------------
D------------------------------------------------
G------------------------------------------------
B-66--6h866-66---------66--6h866-664h6-664h6---6-
e---34--------34-646s8---34-----------------343--


Basic Chorus:
Aro ekbaar cholo phirey jai...
E------------------------------------------------
A-------------------------------------------66s8-
D---------66-------66-----------656-6-6p53-3-----
G-5556-653--555-653--33-3-3-3h53-----2-----------
B-----4--------4---------------------------------
e------------------------------------------------

Aro ekbaar haathta chunye dekh...
E------------------------------------------------
A-------------------------------------------66s8-
D---------66-------66-----------656-6-6p53-3-----
G-5556-653--555-653--33-3-3-3h53-----2-----------
B-----4--------4---------------------------------
e------------------------------------------------


Interlude Lick 2:
  Fm          C#           G#         Fm
E------------------------------------------------
A------------------------------------------------
D-6-----6-----6-----6-----6-----6-----6-----6----
G--5---5-5---5-6---6-6---6-5---5-5---5-5---5-6---
B---6-6---6-6---6-6---6-6---4-4---4-4---6-6---6--
e----3-----3-----3-----3-----4-----4-----3-----3-


Bridge:
Aro ekbaar raaji ami - ami raaji jhunki nitey.
E--------------------------------------------
A--------------------------------------------
D--------------------------------------------
G-5--------5--------5----------66-66---------
B--666-6----666-6----666-6---64-----64-(6h4)-
e-------334------334------334---------------- x2


Verse 2:
Beshi kotha thaak, holo na...
E------------------------------------
A------------------------------------
D------------------------------------
G------------------------------------
B-66666----66-------------------------
e------3h44--334668p6-4444h666-6646h8-

Swapnera tobu khunjey jay...
E------------------------------------------------
A------------------------------------------------
D------------------------------------------------
G------------------------------------------------
B-66--6h866-66---------66--6h866-664h6-664h6---6-
e---34--------34-646s8---34-----------------343--


Chorus 2: {repeat chorus 1}


Interlude Lick 3:
  Fm          C#           G#         Fm
E------------------------------------------------
A------------------------------------------------
D-6-----6-----6-----6-----6-----6-----6-----6----
G--5---5-5---5-6---6-6---6-5---5-5---5-5---5-6---
B---6-6---6-6---6-6---6-6---4-4---4-4---6-6---6--
e----3-----3-----3-----3-----4-----4-----3-----3- x2


Chorus 3: {repeat chorus 1}


Outro Lick:
E-------------------------------------
A-------------------------------------
D-------------------------------------
G-------------------------------------
B-------------------------------------
e-3h4-444-444-444p3-3h4-444-444-444p3-

E------------------------------------
A------------------------------------
D------------------------------------
G------------------------------------
B-4h6-6666p4-6h8v-8h9v---------------
e------------------------------------

E-------------------------------------
A-------------------------------------
D-------------------------------------
G-------------------------------------
B-------------------------------------
e-3h4-444-444-444p3-3h4-444-444-444p3-

E---------------------------------------
A---------------------------------------
D---------------------------------------
G---------------------------------------
B---------------------------------------
e-4h66666p444p33446-6s99-99s8-66-44-6s8-...


What do these symbols mean? Reading Tabs...
http://banglachords.blogspot.com/2011/04/aro-ekbar-etota-poth-periye-fossils.html



Liked 'Aro Ekbar (Etota Poth Periye) Fossils : Tabs' enough to share / save?

Aro Ekbar (Etota Poth Periye) Fossils : Tabs

Comments: 0 comment(s)...have your say!

BanglaChords Tip:

Tune your guitar before you start playing.^Top^
 





# Hosted for free on Blogspot.com / "Powered by Blogger." Get yours today at www.blogger.com
# The material collected and made available through these sites is exclusively intended for private study, research & to provide study material for musicians - in good faith. (Copyrights)
# This site uses cookies to offer you a better browsing experience. Kindly read the Terms of Service & Privacy policy and continue only if you agree.
# Copyrights, wherever applicable: IndianGuitarChords.Blogspot.Com (™ ©) / Arindam Sarkar © - MMVIII - MMXVI