Bangla Chords:

0 comment(s) so far...have your say!

Petkati Chandiyal Mombati Bogga (Sumon) : Tabs


qrcode for - Petkati Chandiyal Mombati Bogga (Sumon) : Tabs
Song: Petkati Chandiyal
Artist: Kabir Suman (Sumon Chattopadhyay)
From: Tomake Chai (1992)


View:
{ Chords } - { Strum } - { Tabs } - { Lyrics } - { PDF } - { Videos }



Guitar Tabs:
Petkai chandiyal mombati bogga...
E------------------------------------
A------------------------------------
D------------------------------------
G-7-77777-6h777-77-7777-------7777-7-
B-----------------------66h8-8-------
e------------------------------------x2

Boyesh baro ki tero...
E------------------------------------
A------------------------------------
D------------------------------------
G-6h7777-777-77-6h77------7-777------
B-------------------66h8-8-----------
e------------------------------------

Boyesh baro ki tero - boro jor choddo...
E------------------------------------
A------------------------------------
D------------------------------------
G-6h7777-6h7777-777------777---------
B-------------------6668-8-----------
e------------------------------------

Cheletar mon ney, padeley ba chakkay...
E------------------------------------------------
A------------------------------------------------
D-7-----77--------7-----77-------7---------------
G--57-77--57-77----57-77--57-77---5-------77-7-7-
B----------------------------------6666-88-------
e------------------------------------------------

Shaan deya manjay bogga bhokatta...
E------------------------------------
A------------------------------------
D-9------9---------------------------
G--7999p7-7999-999-------------------
B-----------------7h888--------------
e----------------------9h55555-------

Showar babuti bhabay deri hoye jacchay...
E------------------------------------
A------------------------------------
D------------------------------------
G------------------------------------
B-7-------7-----7-------7------------
e--55-7875-55555-55-7875-5555--------

"Oi choonra! Arey, Oi choonra, molo jaa...
E--------------------------------------
A--------------------------------------
D--------------------------------------
G--------------------------------------
B-7-------7-----7-------7--------------
e--55-7875-55555-55-778(10)-(10)555555-

Babur khenkani shuney shombit phirey pay...
E------------------------------------
A------------------------------------
D---------------7-7------------------
G-999---9-99-999---5-555h7-7-77777---
B----787-----------------------------
e------------------------------------

Hey kishor, parbe ki ei bojha tantey?
E------------------------------------
A------------------------------------
D------------------------------------
G-7-77777-6h777-77-7777-------7777-7-
B-----------------------66h8-8-------
e------------------------------------x2

Je cheleta pronponey rickshaw chalacchay...
E------------------------------------
A------------------------------------
D------------------------------------
G--------------------------------7---
B-7h8-888-7h88888-6h77777-666-66-----
e------------------------------------

Petkai chandiyal mombati bogga...
E------------------------------------
A------------------------------------
D------------------------------------
G-7-77777-6h777-77-7777-------7777-7-
B-----------------------66h8-8-------
e------------------------------------


What do these symbols mean? Reading Tabs...
http://banglachords.blogspot.com/2011/03/petkati-chandiyal-mombati-bogga-sumon_19.html



Liked 'Petkati Chandiyal Mombati Bogga (Sumon) : Tabs' enough to share / save?

Petkati Chandiyal Mombati Bogga (Sumon) : Tabs

Comments: 0 comment(s)...have your say!

BanglaChords Tip:

Tune your guitar before you start playing.^Top^
 





# Hosted for free on Blogspot.com / "Powered by Blogger." Get yours today at www.blogger.com
# The material collected and made available through these sites is exclusively intended for private study, research & to provide study material for musicians - in good faith. (Copyrights)
# This site uses cookies to offer you a better browsing experience. Kindly read the Terms of Service & Privacy policy and continue only if you agree.
# Copyrights, wherever applicable: IndianGuitarChords.Blogspot.Com (™ ©) / Arindam Sarkar © - MMVIII - MMXVI