Bangla Chords:

0 comment(s) so far...have your say!

Chokher Aloy Dekhechilem : Tabs


qrcode for - Chokher Aloy Dekhechilem : Tabs
Song: Chokher Aloy Dekhechilem
Artist: Rabindranath Tagore
From: Gitobitan


View:
{ Chords } - { Strum } - { Tabs } - { Lyrics } - { PDF } - { Videos }



Guitar Tabs:
Chokher aloy dekhechilem chokher bahirey...
E------------------------------------
A------------------------------------
D------------------------------------
G-4----------3-4---------------------
B--2--4-4242--2-422h4----------------
e---21-------------------------------


Anterey aaj dekhbo, jokhon alok nahi-re.
E------------------------------------
A------------------------------------
D------------------------------------
G------------------------------------
B------------------------------------
e-2-222-212-22-24-264h4-42-----------


Chokher aloy dekhechilem chokher bahirey...
E------------------------------------
A------------------------------------
D------------------------------------
G-4----------3-4---------------------
B--2--4-4242--2-422h4----------------
e---21-------------------------------


Dhoray jokhon dao na dhora, hridoy tokhon tomay bhora.
E------------------------------------
A------------------------------------
D------------------------------------
G------------------------------------
B---4-----------------------9-----7--
e-22-224-6s77-7s6s7-(11)97-6-6h7-6--- (x2)


Ekhon tomar apon aloy tomay chahi-re.
E------------------------------------
A------------------------------------
D------------------------------------
G------------------------------------
B-------------9--7--96---------------
e-(11)(11)97-6-76-66--44h6-24--------


Chokher aloy dekhechilem chokher bahirey...
E------------------------------------
A------------------------------------
D------------------------------------
G-4----------3-4---------------------
B--2--4-4242--2-422h4----------------
e---21-------------------------------


Tomay niye khelechilem khelar ghore-te...
E-----------------------------------------
A-----------------------------------------
D-----------------------------------------
G-43-----4--------3-4---------------------
B---222-2-444-44-2-2-------7--96-99-7697--
e----------------------77-6-66------------ (x2)


Thak tobe shei kebol khela, hok-na ekhon praner mela...
E------------------------------------
A------------------------------------
D------------------------------------
G------------------------------------
B-777p69------------------------9--7-
e-------6h77-6h97-9s(11)(11)97-6-76--


Tarer beena bhanglo, hridoy-beenay gahi-re...
E------------------------------------
A------------------------------------
D------------------------------------
G------------------------------------
B------------------------------------
e-77-77-676-7779-9(11)9-9(11)9-------


Chokher aloy dekhechilem chokher bahirey...
E------------------------------------
A------------------------------------
D------------------------------------
G-4----------3-4---------------------
B--2--4-4242--2-422h4----------------
e---21-------------------------------


Anterey aaj dekhbo, jokhon alok nahi-re.
E------------------------------------
A------------------------------------
D------------------------------------
G------------------------------------
B------------------------------------
e-2-222-212-22-24-264h4-42-----------


Chokher aloy dekhechilem chokher bahirey...
E------------------------------------
A------------------------------------
D------------------------------------
G-4----------3-4---------------------
B--2--4-4242--2-422h4----------------
e---21-------------------------------


What do these symbols mean? Reading Tabs...
http://banglachords.blogspot.com/2011/02/chokher-aloy-dekhechilem-tabs.html



Liked 'Chokher Aloy Dekhechilem : Tabs' enough to share / save?

Chokher Aloy Dekhechilem : Tabs

Comments: 0 comment(s)...have your say!

BanglaChords Tip:

Tune your guitar before you start playing.^Top^
 





# Hosted for free on Blogspot.com / "Powered by Blogger." Get yours today at www.blogger.com
# The material collected and made available through these sites is exclusively intended for private study, research & to provide study material for musicians - in good faith. (Copyrights)
# This site uses cookies to offer you a better browsing experience. Kindly read the Terms of Service & Privacy policy and continue only if you agree.
# Copyrights, wherever applicable: IndianGuitarChords.Blogspot.Com (™ ©) / Arindam Sarkar © - MMVIII - MMXVI