Bangla Chords:

0 comment(s) so far...have your say!

Ami Hridoyer Kotha Bolitey Byakul : Tabs


qrcode for - Ami Hridoyer Kotha Bolitey Byakul : Tabs
Song: Ami Hridoyer Kotha Bolitey Byakul
Artist: Rabindranath Tagore
From: Gitobitan


View:
{ Chords } - { Strum } - { Tabs } - { Lyrics } - { PDF } - { Videos }



Guitar Tabs:
Ami hridoyer kotha bolitey byakul...
E-----------------------------------------
A-----------------------------------------
D-----------------------------------------
G-----------------------------------------
B-45-5------------------------54h5-4h5h77-
e-----22-222-245-4h54s2-2h42h4------------


She to elo na - she to elo na...
E---------------------------------------------
A---------------------------------------------
D---------------------------------------------
G-44--------------44--------------------------
B---222------5p4p2--222----------7----------7-
e------220h22----------66676h7-54-45-457-454--


She ki mor torey potho chaahe...
E------------------------------------
A------------------------------------
D------------------------------------
G------------------------------------
B--------7-------------------7-------
e-666-66--6-676-44-457457-454--------


Jar bansori-dhwaani shuniye...
E-----------------------------------------------
A-----------------------------------------------
D-----------------------------------------------
G-----------------------------------------------
B-455------------455---------------7----------7-
e----222-222-2455---222-222-2455-66-45-457-454--


What do these symbols mean? Reading Tabs...
http://banglachords.blogspot.com/2011/02/ami-hridoyer-kotha-bolitey-byakul-tabs.html



Liked 'Ami Hridoyer Kotha Bolitey Byakul : Tabs' enough to share / save?

Ami Hridoyer Kotha Bolitey Byakul : Tabs

Comments: 0 comment(s)...have your say!

BanglaChords Tip:

Tune your guitar before you start playing.^Top^
 





# Hosted for free on Blogspot.com / "Powered by Blogger." Get yours today at www.blogger.com
# The material collected and made available through these sites is exclusively intended for private study, research & to provide study material for musicians - in good faith. (Copyrights)
# This site uses cookies to offer you a better browsing experience. Kindly read the Terms of Service & Privacy policy and continue only if you agree.
# Copyrights, wherever applicable: IndianGuitarChords.Blogspot.Com (™ ©) / Arindam Sarkar © - MMVIII - MMXVI