Bangla Chords:

0 comment(s) so far...have your say!

Tomra Ja Bolo Tai Bolo : Tabs


qrcode for - Tomra Ja Bolo Tai Bolo : Tabs
Song: Tomra Ja Bolo Tai Bolo
Artist: Debabrata Biswas, Rabindranath Tagore
From: Panchashar (1968), Gitobitan


View:
{ Chords } - { Strum } - { Tabs } - { Lyrics } - { PDF } - { Videos }



Guitar Tabs:
Basic Theme:
Tomra ja bolo tai bolo...
E------------------------------------
A------------------------------------
D------------------------------------
G---------3---------------3----------
B-33343113-1-3h41h3-343113-1-3h41h3--
e------------------------------------

Amar lagey na money...
E------------------------------------
A------------------------------------
D------------------------------------
G---------------------3--------------
B-666----6-64-33343113-1-------------
e----3653-3--------------------------

Amar jay bela, boye jay bela...
E-----------------------------------------------------
A-----------------------------------------------------
D-----------------------------------------------------
G-333----------333---------------------------------3--
B----111-131-43---111-131-43--------6-6864-33343113-1-
e-----------1------------1---1113-65------------------


What do these symbols mean? Reading Tabs...
http://banglachords.blogspot.com/2011/01/tomra-ja-bolo-tai-bolo-tabs.html



Liked 'Tomra Ja Bolo Tai Bolo : Tabs' enough to share / save?

Tomra Ja Bolo Tai Bolo : Tabs

Comments: 0 comment(s)...have your say!

BanglaChords Tip:

Tune your guitar before you start playing.^Top^
 





# Hosted for free on Blogspot.com / "Powered by Blogger." Get yours today at www.blogger.com
# The material collected and made available through these sites is exclusively intended for private study, research & to provide study material for musicians - in good faith. (Copyrights)
# This site uses cookies to offer you a better browsing experience. Kindly read the Terms of Service & Privacy policy and continue only if you agree.
# Copyrights, wherever applicable: IndianGuitarChords.Blogspot.Com (™ ©) / Arindam Sarkar © - MMVIII - MMXVI