Bangla Chords:

0 comment(s) so far...have your say!

Shei Tumi (LRB / Ayub Bachchu) : Tabs


qrcode for - Shei Tumi (LRB / Ayub Bachchu) : Tabs
Song: Cholo Bodley Jai (Shei Tumi Keno Eto Ochena Holey)
Artist: Ayub Bachchu, LRB (Love Runs Blind)
From: Ferari Mon (Unplugged - Live) (1996)


View:
{ Chords } - { Strum } - { Tabs } - { Lyrics } - { PDF } - { Videos }



Guitar Tabs:
Theme:
E------------------------------------
A------------------------------------
D---75-------------75----------------
G-54--7----75----54--7---75----------
B--------65--8---------65--8---------
e------------------------------------


Verse 1:
Shei tumi keno eto ochena holey?
E------------------------------------
A------------------------------------
D-55--------235-55-------------------
G---5------5------5-------5h77-7p5s4-
B----3-65-3--------3-65-35-----------
e------------------------------------

Kemon korey eto ochena holey tumi?
E----------------------------------------
A----------------------------------------
D-55----------235-55---------------------
G---5--------5------5---------5h77-7p5s4-
B----3-5h65-3--------3-5h65-35-----------
e----------------------------------------

Oh! Bukeri shob koshto du-haate shoriye, Cholo bodle jai!
E------------------------------------
A------------------------------------
D------------------------------------
G-5455-5-444--2h44-------------------
B-----------3-----55-3-3-3-----------
e------------------------------------


Chorus 1:
Tumi keno bojho-na, tomake chara ami oshohay!
E------------------------------------------
A------------------------------------------
D---------------------------------------7--
G--------------------------577--------75---
B-5555-566-55-666-68-3h533----55-5-8-5-----
e------------------------------------------

Aamar oporaadh, chhilo jototuku, tomar kaache,
E----------------------------------------------
A----------------------------------------------
D----------------------------------------------
G-----------------------5--------5p4-55------5-
B-3-5-566-55-6666-3h533--34-4-4-3------5-6533--
e----------------3-----------------------------


Basic Bridges:
Koto raat, ami kendechi... / Joto baar bhebechi bhuley jaabo...
E------------------------------------
A------------------------------------
D-------------------------253h3------
G-54h5-5-2h4224-4p24p2-245-----------
B-------3----------------------------
e------------------------------------

Shunnyotay dubey gechi ami... / Phele asha shei shob din-gulo...
E-------------------------------
A-------------------------------
D----------------------535------
G-54h55-5-2h4224-4245-----------
B--------3----------------------
e-------------------------------


What do these symbols mean? Reading Tabs...
http://banglachords.blogspot.com/2011/01/shei-tumi-lrb-ayub-bachchu-tabs.html



Liked 'Shei Tumi (LRB / Ayub Bachchu) : Tabs' enough to share / save?

Shei Tumi (LRB / Ayub Bachchu) : Tabs

Comments: 0 comment(s)...have your say!

BanglaChords Tip:

Tune your guitar before you start playing.^Top^
 





# Hosted for free on Blogspot.com / "Powered by Blogger." Get yours today at www.blogger.com
# The material collected and made available through these sites is exclusively intended for private study, research & to provide study material for musicians - in good faith. (Copyrights)
# This site uses cookies to offer you a better browsing experience. Kindly read the Terms of Service & Privacy policy and continue only if you agree.
# Copyrights, wherever applicable: IndianGuitarChords.Blogspot.Com (™ ©) / Arindam Sarkar © - MMVIII - MMXVI