Bangla Chords:

0 comment(s) so far...have your say!

Ei Sundar Swarnali Sandhaye : Tabs


qrcode for - Ei Sundar Swarnali Sandhaye : Tabs
Song: Ei Sundar Swarnali Sandhaye
Artist: Geeta Dutt , Gauriprasanna Mazumder
From: Hospital (1960)


View:
{ Chords } - { Strum } - { Tabs } - { Lyrics } - { PDF } - { Videos }



Guitar Tabs:
Basic Chorus:
Ei sundar swarnali sandhaye...
E------------------------------------
A-6--------------56-----------66-----
D--33h55-568-6s53--3-33-3356-3-------
G------------------------------------
B------------------------------------
e------------------------------------

Kon raktim polasher swapno...
E-6----------------------------------
A--6-66-666-6p55-5--5---6------------
D----------3----3-33-353-3-----------
G-------------------------3----------
B------------------------------------
e------------------------------------


Basic Verse:
Amlaki-piyaler phondi...
E---------------------------------------
A---------------------------------------
D----------------------6---6------------
G--------------------55-555-5--5s7-7p5s3-
B-3h4-44-3h444s5-3p44--------43----------
e----------------------------------------

Bujhi kon shurey amare bhoralego, bondhu?
E------------------------------------
A------------------------------------
D-56----------6533-5-----------------
G---3-33-333h5------1s3----3h5p3h5p3-
B------------------------------------
e------------------------------------

Ei sundar swarnali sandhaye...
E------------------------------------
A-6--------------56-----------66-----
D--33h55-568-6s53--3-33-3356-3-------
G------------------------------------
B------------------------------------
e------------------------------------


What do these symbols mean? Reading Tabs...
http://banglachords.blogspot.com/2011/01/ei-sundar-swarnali-sandhaye-tabs.html



Liked 'Ei Sundar Swarnali Sandhaye : Tabs' enough to share / save?

Ei Sundar Swarnali Sandhaye : Tabs

Comments: 0 comment(s)...have your say!

BanglaChords Tip:

Tune your guitar before you start playing.^Top^
 





# Hosted for free on Blogspot.com / "Powered by Blogger." Get yours today at www.blogger.com
# The material collected and made available through these sites is exclusively intended for private study, research & to provide study material for musicians - in good faith. (Copyrights)
# This site uses cookies to offer you a better browsing experience. Kindly read the Terms of Service & Privacy policy and continue only if you agree.
# Copyrights, wherever applicable: IndianGuitarChords.Blogspot.Com (™ ©) / Arindam Sarkar © - MMVIII - MMXVI