Bangla Chords:

2 comment(s) so far...have your say!

Amra Korbo Joy Nishchoy : Tabs


qrcode for - Amra Korbo Joy Nishchoy : Tabs
Song: Amra Korbo Joy Nishchoy
Artist: Bhupen Hazarika
From: Ami Ek Jajabar (1994)


View:
{ Chords } - { Strum } - { Tabs } - { Lyrics } - { PDF } - { Videos }



Guitar Tabs:
Basic Verse:
Amra korbo joy! Amra korbo joy! Amra korbo joy nischoy!
E------------------------------------
A------------------------------------
D------------------------------------
G-------98------98-------------------
B-7799-7--7799-7--779-------9-97-----
e--------------------67-9-6--6-------

Aha buker gobheer, ache prottoy, amra korbo joy nishchoy!
E------------------------------------
A------------------------------------
D------------------------------------
G--------------98-89--698--6-4-------
B-9----977-7h97-----77---------------
e--67-6------------------------------


What do these symbols mean? Reading Tabs...
http://banglachords.blogspot.com/2011/01/amra-korbo-joy-nishchoy-tabs.html



Liked 'Amra Korbo Joy Nishchoy : Tabs' enough to share / save?

Amra Korbo Joy Nishchoy : Tabs

Comments: 2 comment(s)...have your say!

polisaid...

Tab tar jonno dhonobad. Ekta suggestion chilo: first part er sesh tay 7 9 75 er bodole 9 11 9 7 (2nd string) e try kore dekhte paro, amar shunte better lagchilo.

Arindam Sarkarsaid...

Thanks Poli. :) Shunte better lagatai uchit. Amar tabser oi jaygata bhul chlo. :P Sorry. Correct korey diyechi

BanglaChords Tip:

Tune your guitar before you start playing.^Top^
 





# Hosted for free on Blogspot.com / "Powered by Blogger." Get yours today at www.blogger.com
# The material collected and made available through these sites is exclusively intended for private study, research & to provide study material for musicians - in good faith. (Copyrights)
# This site uses cookies to offer you a better browsing experience. Kindly read the Terms of Service & Privacy policy and continue only if you agree.
# Copyrights, wherever applicable: IndianGuitarChords.Blogspot.Com (™ ©) / Arindam Sarkar © - MMVIII - MMXVI