Bangla Chords:

0 comment(s) so far...have your say!

Ami Jamini Tumi Shasi Hey : Tabs


qrcode for - Ami Jamini Tumi Shasi Hey : Tabs
Song: Ami Jamini Tumi Shasi Hey
Artist: Manna Dey
From: Antony Firingee (1967)


View:
{ Chords } - { Strum } - { Tabs } - { Lyrics } - { PDF } - { Videos }



Guitar Tabs:
Chorus:

Ami jamini, tumi sashi, hey - bhaticho...
E------------------------------------
A--4-----------444-------------------
D---4------6-6----443-6p4------------
G----343-43-3------------------------
B------------------------------------
e------------------------------------

Momo shoroshitey tobo ujolo probhaat...
E------------------------------------
A------------------------------------
D---------------------------------64-
G-34-4----------343s1-1h31h3---343---
B-----222-22-242------------22-------
e------------------------------------

Ami jamini, tumi sashi, hey - bhaticho...
E------------------------------------
A--4-----------444-------------------
D---4------6-6----443-6p4------------
G----343-43-3------------------------
B------------------------------------
e------------------------------------


Basic Verse:

Tomay heri go, swapaney, shayaney...
E----------------------------------------------------
A----------------------------------------------------
D-8------------------------6----------------6--------
G--6----------------6-5656--3h4-343-66--5656-3h4-343-
B---7-777s6-6764-454---------------------------------
e----------------------------------------------------

Mori, oporuup rupo-maadhuri
E-----------------------------------------------------
A-----------------------------------------------------
D---6-43-4-6------6-43-4-6----------------------------
G-34-3----3-434-34-3----3-434--3-------66-4443--------
B-------------------------------6s7-6s4---------------
e-----------------------------------------------------

Ami jamini, tumi sashi, hey - bhaticho...
E------------------------------------
A--4-----------444-------------------
D---4------6-6----443-6p4------------
G----343-43-3------------------------
B------------------------------------
e------------------------------------


Bridge: {repeat 1+1}

Tumi je shishir-bindu...
E--------------------------------------------
A---------------6----------------------------
D----66-644-3434-3-4s66-36----------------66-
G-333--3------------------3553-6-55-33h5-3---
B-----------------------------4--------------
e--------------------------------------------


What do these symbols mean? Reading Tabs...
http://banglachords.blogspot.com/2011/01/ami-jamini-tumi-shosi-he-tabs.html



Liked 'Ami Jamini Tumi Shasi Hey : Tabs' enough to share / save?

Ami Jamini Tumi Shasi Hey : Tabs

Comments: 0 comment(s)...have your say!

BanglaChords Tip:

Tune your guitar before you start playing.^Top^
 





# Hosted for free on Blogspot.com / "Powered by Blogger." Get yours today at www.blogger.com
# The material collected and made available through these sites is exclusively intended for private study, research & to provide study material for musicians - in good faith. (Copyrights)
# This site uses cookies to offer you a better browsing experience. Kindly read the Terms of Service & Privacy policy and continue only if you agree.
# Copyrights, wherever applicable: IndianGuitarChords.Blogspot.Com (™ ©) / Arindam Sarkar © - MMVIII - MMXVI