Bangla Chords:

0 comment(s) so far...have your say!

Aguner Poroshmoni (Rabindrasangeet) : Tabs


qrcode for - Aguner Poroshmoni (Rabindrasangeet) : Tabs
Song: Aguner Poroshmoni
Rabindranath Tagore
From: Gitobitan


View:
{ Chords } - { Strum } - { Tabs } - { Lyrics } - { PDF } - { Videos }



Guitar Tabs:
Aaguner poroshmoni chonwao prane...
E---------------------------------------------
A---------------------------------------------
D---------------------------------------------
G-4--------------------------------------4--4-
B--44-44-44-44-4255-555-4-54-444-2542-222-42--
e------------------------2--------------------

E jibon punno koro dwahawn-daane...
E--------------------------------------
A--------------------------------------
D--------------------------------------
G-444-------------4--------------------
B------------------4-444-44-44-44-4255-
e----22-222-22-212---------------------


Amar ei dehokhani tule dhoro.../Aandharer gaaye gaaye porosh tobo...
E---------------------------------------
A---------------------------------------
D---------------------------------------
G-444-44-44-44-43-----------------------
B----------------22-444-44-574-454-2-54-
e---------------------------------------

E------------------------------------------
A------------------------------------------
D------------------------------------------
G------------------------------------------
B-7--------------------7-------------------
e--66-66-646-79-7s646---66-66-646-79-7s646-

E------------------------------------
A------------------------------------
D------------------------------------
G-4----------------------------------
B--4-444-44-44-44-4255---------------
e------------------------------------


What do these symbols mean? Reading Tabs...
http://banglachords.blogspot.com/2011/01/aguner-poroshmoni-rabindrasangeet-tabs.html



Liked 'Aguner Poroshmoni (Rabindrasangeet) : Tabs' enough to share / save?

Aguner Poroshmoni (Rabindrasangeet) : Tabs

Comments: 0 comment(s)...have your say!

BanglaChords Tip:

Tune your guitar before you start playing.^Top^
 





# Hosted for free on Blogspot.com / "Powered by Blogger." Get yours today at www.blogger.com
# The material collected and made available through these sites is exclusively intended for private study, research & to provide study material for musicians - in good faith. (Copyrights)
# This site uses cookies to offer you a better browsing experience. Kindly read the Terms of Service & Privacy policy and continue only if you agree.
# Copyrights, wherever applicable: IndianGuitarChords.Blogspot.Com (™ ©) / Arindam Sarkar © - MMVIII - MMXVI