Bangla Chords:

0 comment(s) so far...have your say!

Ami Pathbhola Ek Pathik : Tabs


qrcode for - Ami Pathbhola Ek Pathik : Tabs
Song: Ami Pathbhola Ek Pathik
Artist: Hemanta Mukherjee, Asha Bhosle, Rabindranath Tagore
From: Mon Niye (1969), Gitobitan


View:
{ Chords } - { Strum } - { Tabs } - { Lyrics } - { PDF } - { Videos }



Guitar Tabs:
Ami poth bhola ek pathik eshechi.
E------------------------------------
A-124---4--2-------------------------
D----421-21-122h4--------------------
G------------------------------------
B------------------------------------
e------------------------------------ x2

Shondha belar chameli go, shokal belar mollika...
E-------------------------------------
A-------------------------------------
D-2------------2-2-----------4--------
G--11-111-11-11---1-241-121-1-33-3134-
B-------------------------------------
e-------------------------------------

Ami poth bhola ek pathik eshechi.
E------------------------------------
A-124---4--2-------------------------
D----421-21-122h4--------------------
G------------------------------------
B------------------------------------
e------------------------------------ 

rest similar


What do these symbols mean? Reading Tabs...
http://banglachords.blogspot.com/2010/12/ami-pathbhola-ek-pathik-tabs-song-ami.html



Liked 'Ami Pathbhola Ek Pathik : Tabs' enough to share / save?

Ami Pathbhola Ek Pathik : Tabs

Comments: 0 comment(s)...have your say!

BanglaChords Tip:

Tune your guitar before you start playing.^Top^
 





# Hosted for free on Blogspot.com / "Powered by Blogger." Get yours today at www.blogger.com
# The material collected and made available through these sites is exclusively intended for private study, research & to provide study material for musicians - in good faith. (Copyrights)
# This site uses cookies to offer you a better browsing experience. Kindly read the Terms of Service & Privacy policy and continue only if you agree.
# Copyrights, wherever applicable: IndianGuitarChords.Blogspot.Com (™ ©) / Arindam Sarkar © - MMVIII - MMXVI