Bangla Chords:

0 comment(s) so far...have your say!

Amake Amar Moto Thakte Dao : Tabs


qrcode for - Amake Amar Moto Thakte Dao : Tabs
Song: Amake Amar Moto Thakte Dao
Artist: Anupam Roy, Debajyoti Mishra
From: Autograph (2010)


View:
{ Chords } - { Strum } - { Tabs } - { Lyrics } - { PDF } - { Videos }



Guitar Tabs:
Basic Verse:

Amake amar moto thakte dao.../Tomar ei duniyar jhapsha aaloye...
E------------------------------------
A------------------------------------
D------------------------------------
G-4--4---44-------4-4--4------55442--
B--33-3-3--33h5-33---33-3-33-3-------
e------------------------------------

Jeta chilona, chilona - sheta na pawai thak.../Kichu shondher guro hawa...
E------------------------------------
A------------------------------------
D---------------55-5-5-55-57-7s9s7---
G-222-44-244-5--------------4--------
B-------------33---------------------
e------------------------------------

Jodi udhey jete chao tobey ga bhaanshiye dao...
E---------------------------------------------
A---------------------------------------------
D-55--------555-5-555-----5p4h5--5s4s2--5p4h5-
G---44445------------232h3-----42-----42------
B--------333----------------------------------
e---------------------------------------------

Basic Chorus:

Ei jahaj-maastul chhar-khaar...
E---------------------------------------------
A-5--------------------5----------------------
D-----------------5---------------------5-----
G--442-4h55-2-2-22-2h44-4442-4s55-2-2-22-2h44-
B---------------------------------------------
e---------------------------------------------

Tai cheshta korchi baar-baar...
E------------------------------------
A------5s775-------------------------
D-5545-------------------------------
G-----4-----4442-4s5--5s4s2----------
B------------------------------------
e------------------------------------

Naa...Naa naa naa naa naa...
E------------------------------------
A------------------------------------
D------------------------------------
G-4-245-4-245-4-245------------------
B------3-----3-----3-----------------
e------------------------------------(repeats)


What do these symbols mean? Reading Tabs...
http://banglachords.blogspot.com/2010/12/amake-amar-moto-thakte-dao-tabs.html



Liked 'Amake Amar Moto Thakte Dao : Tabs' enough to share / save?

Amake Amar Moto Thakte Dao : Tabs

Comments: 0 comment(s)...have your say!

BanglaChords Tip:

Tune your guitar before you start playing.^Top^
 





# Hosted for free on Blogspot.com / "Powered by Blogger." Get yours today at www.blogger.com
# The material collected and made available through these sites is exclusively intended for private study, research & to provide study material for musicians - in good faith. (Copyrights)
# This site uses cookies to offer you a better browsing experience. Kindly read the Terms of Service & Privacy policy and continue only if you agree.
# Copyrights, wherever applicable: IndianGuitarChords.Blogspot.Com (™ ©) / Arindam Sarkar © - MMVIII - MMXVI