Bangla Chords:

0 comment(s) so far...have your say!

Shunte Ki Chao (Anjan Dutta) : Tabs


qrcode for - Shunte Ki Chao (Anjan Dutta) : Tabs
Song: Shunte Ki Chao
Artist: Anjan Dutta
From: Shunte Ki Chao (1994)


View:
{ Chords } - { Strum } - { Tabs } - { Lyrics } - { PDF } - { Videos }



Guitar Tabs:
Basic Verse:

(Shunte ki chao tumi, shei odbhut beshuro shur?...)
E--5-----5---------------------------
A-5-5---5-5-4--5-------5-----4-------
D----442---2-22---44422-44422-2------
G------------------------------------
B------------------------------------
e------------------------------------

Dekhte ki chao tumi shei khelnaolata ke?
E------------------------------------
A------------------------------------
D-55-55-55-55-5-55-5-4---------------
G------------------------------------
B------------------------------------
e------------------------------------

Tar khelna dotara shey bajacche kobe theke.
E---5-------5-------------------------
A-55-5----55-5-4--5-------------------
D-----2h44----2-22--------------------
G-------------------------------------
B-------------------------------------
e-------------------------------------


What do these symbols mean? Reading Tabs...
http://banglachords.blogspot.com/2010/10/shunte-ki-chao-anjan-dutta-tabs.html



Liked 'Shunte Ki Chao (Anjan Dutta) : Tabs' enough to share / save?

Shunte Ki Chao (Anjan Dutta) : Tabs

Comments: 0 comment(s)...have your say!

BanglaChords Tip:

Tune your guitar before you start playing.^Top^
 





# Hosted for free on Blogspot.com / "Powered by Blogger." Get yours today at www.blogger.com
# The material collected and made available through these sites is exclusively intended for private study, research & to provide study material for musicians - in good faith. (Copyrights)
# This site uses cookies to offer you a better browsing experience. Kindly read the Terms of Service & Privacy policy and continue only if you agree.
# Copyrights, wherever applicable: IndianGuitarChords.Blogspot.Com (™ ©) / Arindam Sarkar © - MMVIII - MMXVI