Bangla Chords:

0 comment(s) so far...have your say!

Mr Hall (Hundred Miles) (Anjan Dutta) : Tabs


qrcode for - Mr Hall (Hundred Miles) (Anjan Dutta) : Tabs
Song: Mr. Hall
Artist: Anjan Dutta
From: Keu Gaan Gaye (1997)


View:
{ Chords } - { Strum } - { Tabs } - { Lyrics } - { PDF } - { Videos }



Guitar Tabs:
Basic Verse:
Kaane baaje ekhunoo, purano she piano-r jhonkaar...
E------------------------------------
A------------------------------------
D---66-66s7-----776-64--44467--76----
G-44-------446-4-------------44------
B------------------------------------
e------------------------------------

Shaari bendhe daanriya ekhsho mile-r gaanta...
E-----------------------77-------------
A-------------------------666-7--67----
D---66-66s7-----776-64---------64------
G-44-------446-4-----------------------
B--------------------------------------
e--------------------------------------

Janalar baire kuwashaay shaada ishkool ta...
E------------------------------------
A------------------------------------
D---66-66s7---------66-66s7----7664--
G-44-------444--6-44-------44h6------
B-------------55---------------------
e------------------------------------

Haat pate bet khete hoyeche tomar kache....
E---------------------77---------------
A-----------------------66-7-66h7------
D---66-66s7----76-674-------6----------
G-44-------4464------------------------
B--------------------------------------
e--------------------------------------


Chorus:
If you miss this train I'm on...
E------------------------------------
A-7-----7----7----74-47----74-44-77--
D--466-4-6-64-4-64-----4-64----------
G------------------------------------
B------------------------------------
e------------------------------------

A hundred miles! A hundred miles....
E---------------------------7-77-----
A-7-----7----7----74-47----7----77---
D--466-4-6-64-4-64-----4-64----------
G------------------------------------
B------------------------------------
e------------------------------------


What do these symbols mean? Reading Tabs...
http://banglachords.blogspot.com/2010/10/mr-hall-hundred-miles-anjan-dutta-tabs.html



Liked 'Mr Hall (Hundred Miles) (Anjan Dutta) : Tabs' enough to share / save?

Mr Hall (Hundred Miles) (Anjan Dutta) : Tabs

Comments: 0 comment(s)...have your say!

BanglaChords Tip:

Tune your guitar before you start playing.^Top^
 





# Hosted for free on Blogspot.com / "Powered by Blogger." Get yours today at www.blogger.com
# The material collected and made available through these sites is exclusively intended for private study, research & to provide study material for musicians - in good faith. (Copyrights)
# This site uses cookies to offer you a better browsing experience. Kindly read the Terms of Service & Privacy policy and continue only if you agree.
# Copyrights, wherever applicable: IndianGuitarChords.Blogspot.Com (™ ©) / Arindam Sarkar © - MMVIII - MMXVI