Bangla Chords:

0 comment(s) so far...have your say!

Mone Ki Dwidha Rekhe Gele Chole : Tabs


qrcode for - Mone Ki Dwidha Rekhe Gele Chole : Tabs
Song: Mone Ki Dwidha
Artist: Rabindranath Tagore
From: Gitobitan


View:
{ Chords } - { Strum } - { Tabs } - { Lyrics } - { PDF } - { Videos }



Guitar Tabs:
Basic Verse 1 and like:

Mone ki dwidha rekhe gele chole she din bhora saanjhe
E------------------------------------
A------------------------------------
D------------------------------------
G-4-----------3-4-43----4------------
B--24-444-4422-2----2-42-44----------
e------------------------------------

Jete jete duar hote ki bhebe phirale mukhokhani
E------------------------------------
A------------------------------------
D------------------------------------
G-------------------------3-4--------
B-4446-777-64-555-555p4-22-2---------
e------------------------------------

Ki kotha chilo je mone (mone)
E------------------------------------
A------------------------------------
D------------------------------------
G-43-4-------------------------------
B---2-24-246-467---------------------
e------------------------------------

Mone ki dwidha rekhe gele chole
E------------------------------------
A------------------------------------
D------------------------------------
G-4-----------3-4--------------------
B--24-444-4422-2---------------------
e------------------------------------


Basic Verse 2:

Tumi she ki heshe gele aankhikone 
E------------------------------------
A------------------------------------
D------------------------------------
G------------------------------------
B------------------------------------
e-777777-767--------76476------------

Ami boshe boshe bhabi niye kompito hridoykhani
E------------------------------------
A------------------------------------
D------------------------------------
G-------------------666-34-----------
B-------7-454-444-44-----------------
e-6664-4-----------------------------

Tumi acho duur bhubone
E------------------------------------
A------------------------------------
D------------------------------------
G---------34-------------------------
B-4444-2-2---------------------------
e------------------------------------


Basic Verse 3:

Akashe udiche bokpati. Bedona amar taari sathi.
E----------------------------------------
A----------------------------------------
D----------------------------------------
G---4------------4-----------------------
B-42-4444-45754---22-h4p2-4h54-7---7-5s7-
e-------------------------------764-4----

Barek tomay sudhabar chai, bidaykale ki bolo nai
E------------------------------------
A------------------------------------
D------------------------------------
G------------------------------------
B----4-------------------------9---7-
e-222-2-2h4-77767-7(11)(11)9776-676--

She ki roye gelo go shikto juthir gondhobedone. Mone.
E------------------------------------
A------------------------------------
D------------------------------------
G------------------------------------
B-------7------445-544-----245-------
e-666776-6s7764----------------------


What do these symbols mean? Reading Tabs...
http://banglachords.blogspot.com/2010/10/mone-ki-dwidha-rekhe-gele-chole-tabs.html



Liked 'Mone Ki Dwidha Rekhe Gele Chole : Tabs' enough to share / save?

Mone Ki Dwidha Rekhe Gele Chole : Tabs

Comments: 0 comment(s)...have your say!

BanglaChords Tip:

Tune your guitar before you start playing.^Top^
 





# Hosted for free on Blogspot.com / "Powered by Blogger." Get yours today at www.blogger.com
# The material collected and made available through these sites is exclusively intended for private study, research & to provide study material for musicians - in good faith. (Copyrights)
# This site uses cookies to offer you a better browsing experience. Kindly read the Terms of Service & Privacy policy and continue only if you agree.
# Copyrights, wherever applicable: IndianGuitarChords.Blogspot.Com (™ ©) / Arindam Sarkar © - MMVIII - MMXVI