Bangla Chords:

0 comment(s) so far...have your say!

Mone Aar Naire (Bhoomi) : Tabs


qrcode for - Mone Aar Naire (Bhoomi) : Tabs
Song: Mone Aar Naire
Artist: Bhoomi
From: Jatra Shuru (2000)


View:
{ Chords } - { Strum } - { Tabs } - { Lyrics } - { PDF } - { Videos }



Guitar Tabs:
Intro:
E--------------------------------------------------------
A--------------------------------------------------------
D--------------------------------------------------------
G--------------------------------------------------------
B-7875-7-----7h8p7-(10)(10)(10)87-7h87p55h7-5h7h8--------
e-------33s5-------------(10)--------------------5-3h5p3-

E------------------------------------
A------------------------------------
D-------------------77---------------
G---------------------7667-----------
B---------875-7h8p7--5---------------
e-75h7p5-5---------------------------


Basic Chorus:
Mone aar nai re - mone nai naiya....
E----------------------------------------------
A----------------------------------------------
D----------------------------------------------
G----------------------------------------------
B-7875-78--(10)----(10)-8-7-7875-7-8----87-578-
e--------5---(10)(10)-------------5-9-75------- (repeats)

Basic Verse:
Baitam jouban loiya re.../Kaita gelo bohu kaal...
E-------------------------------------------------------------------
A-------------------------------------------------------------------
D-------------------------------------------------------------------
G-------------------------------------------------------------------
B------------------------(10)---------------------------------------
e-(10)(10)(10)(12)(10)(10)----(10)(10)(10)(10)(12)-(14)(12)(12)(10)- x2

Bhaisha aito koto shur.../Daar aar maane na re...
E------------------------------------
A------------------------------------
D------------------------------------
G------------------------------------
B------(10)------------------8(10)7--
e-(10)97--787-8-8p7s5-(10)975-------- x2


What do these symbols mean? Reading Tabs...
http://banglachords.blogspot.com/2010/10/mone-aar-naire-bhoomi-tabs.html



Liked 'Mone Aar Naire (Bhoomi) : Tabs' enough to share / save?

Mone Aar Naire (Bhoomi) : Tabs

Comments: 0 comment(s)...have your say!

BanglaChords Tip:

Tune your guitar before you start playing.^Top^
 





# Hosted for free on Blogspot.com / "Powered by Blogger." Get yours today at www.blogger.com
# The material collected and made available through these sites is exclusively intended for private study, research & to provide study material for musicians - in good faith. (Copyrights)
# This site uses cookies to offer you a better browsing experience. Kindly read the Terms of Service & Privacy policy and continue only if you agree.
# Copyrights, wherever applicable: IndianGuitarChords.Blogspot.Com (™ ©) / Arindam Sarkar © - MMVIII - MMXVI