Bangla Chords:

0 comment(s) so far...have your say!

Lal Matir Sorane (Shilajeet) : Tabs


qrcode for - Lal Matir Sorane (Shilajeet) : Tabs
Song: Lal Matir Sorane
Artist: Shilajeet Majumdar
From: Lal Matir Sorane


View:
{ Chords } - { Strum } - { Tabs } - { Lyrics } - { PDF } - { Videos }



Guitar Tabs:
Basic Verses and Bridge:
Lal matir sorane....
E--------------------------------------------
A--------------------------------------------
D--------------------------------------------
G--------------------------------------------
B------------(10)----------------8---8-------
e-5-55-5h77p5---7(10)-(10)997-757-557--5h777-

Shekhaney, dhuloy makha... | Birbhumer biti-lo..,
E-------------------|---------------------------|
A-------------------|---------------------------|
D-------------------|-----------------------(x2)|
G-------------------|---------------------------|
B-------------------|--7-----------7------------|
e-7775h777-5755-555-|--5-55-5h77p5-5-555-5h77p5-|

Na peli amake, ar toeko... | Jhorey aam kuroy...
E---------------------------|------------------------|
A---------------------------|------------------------|
D---------------------------|------------------------|
G---------------------------|--------------------x2)-|
B----------------(10)8------|--------------8---------|
e-57(10)-(10)997-7--7--5h77-|-5h777-5h7-575-7-777----|

Amar ar rakhal shaja holo na...
E------------------------------------
A------------------------------------
D------------------------------------
G------------------------------------
B------------------------------------
e-57(10)-(10)997-75-55-55-55---------


Basic Chorus:
E------------------------------------
A------------------------------------
D-----------7------------------------
G---7-777-77-----7-777---------------
B-75-5---5-----75-5------------------
e------------------------------------ x2


Extra Parts:
Aam-aantir bheenpu bajay ekhono kon dosshi chhele... (and like)
E----------------------------------------
A----------------------------------------
D----------------------------------------
G----------------------------------------
B----------------------------------------
e-57(10)(10)(10)-(11)(11)9(12)(10)9-7777-

Aam-aantir bheenpu, hmmm...
E----------------------------------------
A----------------------------------------
D----------------------------------------
G----------------------------------------
B----------------------------------------
e-57(10)(10)(10)-(14)--------------------

Aam-aantir bheenpu bajay ekhono kon dosshi chhele... (and like)
E----------------------------------------
A----------------------------------------
D----------------------------------------
G----------------------------------------
B----------------------------------------
e-57(10)(10)(10)-(11)(11)9(12)(10)9-7777-

Godhulir gondhe amar dakishne lo..
E------------------------------------
A------------------------------------
D------------------------------------
G------------------------------------
B------------------------------------
e-557-7777-5777----------------------

Amar ar rakhal shaja holo na...
E------------------------------------
A------------------------------------
D------------------------------------
G------------------------------------
B------------------------------------
e-57(10)-(10)997-75-55-55-55---------


What do these symbols mean? Reading Tabs...
http://banglachords.blogspot.com/2010/10/lal-matir-sorane-shilajeet-tabs.html



Liked 'Lal Matir Sorane (Shilajeet) : Tabs' enough to share / save?

Lal Matir Sorane (Shilajeet) : Tabs

Comments: 0 comment(s)...have your say!

BanglaChords Tip:

Tune your guitar before you start playing.^Top^
 





# Hosted for free on Blogspot.com / "Powered by Blogger." Get yours today at www.blogger.com
# The material collected and made available through these sites is exclusively intended for private study, research & to provide study material for musicians - in good faith. (Copyrights)
# This site uses cookies to offer you a better browsing experience. Kindly read the Terms of Service & Privacy policy and continue only if you agree.
# Copyrights, wherever applicable: IndianGuitarChords.Blogspot.Com (™ ©) / Arindam Sarkar © - MMVIII - MMXVI