Bangla Chords:

0 comment(s) so far...have your say!

Kholo Kholo Daar Rakhiyo Na Aar : Tabs


qrcode for - Kholo Kholo Daar Rakhiyo Na Aar : Tabs
Song: Kholo Kholo Daar
Artist: Rabindranath Tagore
From: Gitobitan


View:
{ Chords } - { Strum } - { Tabs } - { Lyrics } - { PDF } - { Videos }



Guitar Tabs:
Basic Tune Verse 1:

Kholo kholo dwaar, rakhiyo na aar, bahire amay daariye.
E------------------------------------
A------------------------------------
D----------------------8-------------
G-----------7-5775-5-75--------------
B----86-5865------6------------------
e-665--------------------------------

Dao shara dao, ei dike chao, esho dui bahu bariye.
E------------------------------------
A------------------------------------
D-85-8-------------------------------
G-----57-757---7---------------------
B-----------86--6----8---(--8)-------
e----------------5-55-56-(65-)-------


Verse 2:
Kaj hoye geche shara; utheche shondhatara.
E------------------------------------
A------------------------------------
D------------------------------------
G------------------------------------
B-68-------------8-8-8-86------------
e---566-656-666-5---5-5--------------

Aloker kheye hoye gelo deya, astoshagor pariye.
E------------------------------------
A------------------------------------
D------------------------8-----------
G------------77-7-575--75------------
B----866-5865--------6---------------
e-565--------------------------------


Verse 3: similar


What do these symbols mean? Reading Tabs...
http://banglachords.blogspot.com/2010/10/kholo-kholo-daar-rakhiyo-na-aar-tabs.html



Liked 'Kholo Kholo Daar Rakhiyo Na Aar : Tabs' enough to share / save?

Kholo Kholo Daar Rakhiyo Na Aar : Tabs

Comments: 0 comment(s)...have your say!

BanglaChords Tip:

Tune your guitar before you start playing.^Top^
 





# Hosted for free on Blogspot.com / "Powered by Blogger." Get yours today at www.blogger.com
# The material collected and made available through these sites is exclusively intended for private study, research & to provide study material for musicians - in good faith. (Copyrights)
# This site uses cookies to offer you a better browsing experience. Kindly read the Terms of Service & Privacy policy and continue only if you agree.
# Copyrights, wherever applicable: IndianGuitarChords.Blogspot.Com (™ ©) / Arindam Sarkar © - MMVIII - MMXVI