Bangla Chords:

0 comment(s) so far...have your say!

Jao Pakhi Bolo (Antaheen) : Tabs


qrcode for - Jao Pakhi Bolo (Antaheen) : Tabs
Song: Jao Pakhi Bolo
Artist: Shreya Ghoshal, Pranav Biswas
From: (2009)


View:
{ Chords } - { Strum } - { Tabs } - { Lyrics } - { PDF } - { Videos }



Guitar Tabs:
Basic Verse:

Jao pakhi bolo, hawa chholo-chholo / Abjhaay janalar kaanch. (and next two)
E------------------------------------
A------------------------------------
D------------------------------------
G-7-76-7-7776-7-7-76-467-67----------
B-------5------5---------------------
e------------------------------------ x2

Anguler kole joley jonaki....
E------------------------------------
A------------------------------------
D------------------------------------
G-7--------7--6-7-7--------7-6-7-----
B------78-5----5-------78-5---5------
e--5-45------------5-45--------------

Jaanley golpera kotha megh...
E------------------------------------
A------------------------------------
D------------------------------------
G----------------------------7-7-----
B-78---887-78--78---887-78----5------
e---5-5------5---5-5------5----------

Jao pakhi bolo, hawa chholo-chholo / Abjhaay janalar kaanch. (and next two)
E------------------------------------
A------------------------------------
D------------------------------------
G-7-76-7-7776-7-7-76-467-67----------
B-------5------5---------------------
e------------------------------------ x2


What do these symbols mean? Reading Tabs...
http://banglachords.blogspot.com/2010/10/jao-pakhi-bolo-antaheen-tabs.html



Liked 'Jao Pakhi Bolo (Antaheen) : Tabs' enough to share / save?

Jao Pakhi Bolo (Antaheen) : Tabs

Comments: 0 comment(s)...have your say!

BanglaChords Tip:

Tune your guitar before you start playing.^Top^
 





# Hosted for free on Blogspot.com / "Powered by Blogger." Get yours today at www.blogger.com
# The material collected and made available through these sites is exclusively intended for private study, research & to provide study material for musicians - in good faith. (Copyrights)
# This site uses cookies to offer you a better browsing experience. Kindly read the Terms of Service & Privacy policy and continue only if you agree.
# Copyrights, wherever applicable: IndianGuitarChords.Blogspot.Com (™ ©) / Arindam Sarkar © - MMVIII - MMXVI